  0
SECTION
  2
HEADER
  9
$ACADVER
  1
AC1014
  9
$ACADMAINTVER
 70
     9
  9
$DWGCODEPAGE
  3
ANSI_1252
  9
$INSBASE
 10
0.0
 20
0.0
 30
0.0
  9
$EXTMIN
 10
0.0
 20
0.0
 30
0.0
  9
$EXTMAX
 10
18.0
 20
8.5
 30
0.0
  9
$LIMMIN
 10
0.0
 20
0.0
  9
$LIMMAX
 10
18.0
 20
8.5
  9
$ORTHOMODE
 70
     0
  9
$REGENMODE
 70
     1
  9
$FILLMODE
 70
     1
  9
$QTEXTMODE
 70
     0
  9
$MIRRTEXT
 70
     1
  9
$DRAGMODE
 70
     2
  9
$LTSCALE
 40
1.0
  9
$OSMODE
 70
    37
  9
$ATTMODE
 70
     1
  9
$TEXTSIZE
 40
0.1666666667
  9
$TRACEWID
 40
0.05
  9
$TEXTSTYLE
  7
STANDARD
  9
$CLAYER
  8
0
  9
$CELTYPE
  6
BYLAYER
  9
$CECOLOR
 62
   256
  9
$CELTSCALE
 40
1.0
  9
$DELOBJ
 70
     1
  9
$DISPSILH
 70
     0
  9
$DIMSCALE
 40
1.0
  9
$DIMASZ
 40
0.09
  9
$DIMEXO
 40
0.05
  9
$DIMDLI
 40
0.38
  9
$DIMRND
 40
0.0
  9
$DIMDLE
 40
0.0
  9
$DIMEXE
 40
0.0625
  9
$DIMTP
 40
0.0
  9
$DIMTM
 40
0.0
  9
$DIMTXT
 40
0.1666666667
  9
$DIMCEN
 40
0.09
  9
$DIMTSZ
 40
0.0
  9
$DIMTOL
 70
     0
  9
$DIMLIM
 70
     0
  9
$DIMTIH
 70
     1
  9
$DIMTOH
 70
     1
  9
$DIMSE1
 70
     0
  9
$DIMSE2
 70
     0
  9
$DIMTAD
 70
     0
  9
$DIMZIN
 70
     0
  9
$DIMBLK
  1

  9
$DIMASO
 70
     1
  9
$DIMSHO
 70
     1
  9
$DIMPOST
  1

  9
$DIMAPOST
  1

  9
$DIMALT
 70
     0
  9
$DIMALTD
 70
     2
  9
$DIMALTF
 40
25.4
  9
$DIMLFAC
 40
1.0
  9
$DIMTOFL
 70
     0
  9
$DIMTVP
 40
0.0
  9
$DIMTIX
 70
     0
  9
$DIMSOXD
 70
     0
  9
$DIMSAH
 70
     0
  9
$DIMBLK1
  1

  9
$DIMBLK2
  1

  9
$DIMSTYLE
  2
STANDARD
  9
$DIMCLRD
 70
     0
  9
$DIMCLRE
 70
     0
  9
$DIMCLRT
 70
     0
  9
$DIMTFAC
 40
1.0
  9
$DIMGAP
 40
0.06
  9
$DIMJUST
 70
     0
  9
$DIMSD1
 70
     0
  9
$DIMSD2
 70
     0
  9
$DIMTOLJ
 70
     1
  9
$DIMTZIN
 70
     0
  9
$DIMALTZ
 70
     0
  9
$DIMALTTZ
 70
     0
  9
$DIMFIT
 70
     3
  9
$DIMUPT
 70
     0
  9
$DIMUNIT
 70
     2
  9
$DIMDEC
 70
     3
  9
$DIMTDEC
 70
     2
  9
$DIMALTU
 70
     2
  9
$DIMALTTD
 70
     2
  9
$DIMTXSTY
  7
STANDARD
  9
$DIMAUNIT
 70
     0
  9
$LUNITS
 70
     2
  9
$LUPREC
 70
     3
  9
$SKETCHINC
 40
0.1
  9
$FILLETRAD
 40
0.5
  9
$AUNITS
 70
     0
  9
$AUPREC
 70
     0
  9
$MENU
  1
.
  9
$ELEVATION
 40
0.0
  9
$PELEVATION
 40
0.0
  9
$THICKNESS
 40
0.0
  9
$LIMCHECK
 70
     0
  9
$CHAMFERA
 40
0.5
  9
$CHAMFERB
 40
0.5
  9
$CHAMFERC
 40
1.0
  9
$CHAMFERD
 40
0.0
  9
$SKPOLY
 70
     0
  9
$TDCREATE
 40
2455313.655009444
  9
$TDUPDATE
 40
2455313.655009456
  9
$TDINDWG
 40
0.0000000116
  9
$TDUSRTIMER
 40
0.0000000116
  9
$USRTIMER
 70
     1
  9
$ANGBASE
 50
0.0
  9
$ANGDIR
 70
     0
  9
$PDMODE
 70
     0
  9
$PDSIZE
 40
-1.0
  9
$PLINEWID
 40
0.0
  9
$COORDS
 70
     1
  9
$SPLFRAME
 70
     0
  9
$SPLINETYPE
 70
     6
  9
$SPLINESEGS
 70
     8
  9
$ATTDIA
 70
     0
  9
$ATTREQ
 70
     1
  9
$HANDLING
 70
     1
  9
$HANDSEED
  5
530
  9
$SURFTAB1
 70
     6
  9
$SURFTAB2
 70
     6
  9
$SURFTYPE
 70
     6
  9
$SURFU
 70
     6
  9
$SURFV
 70
     6
  9
$UCSNAME
  2

  9
$UCSORG
 10
0.0
 20
0.0
 30
0.0
  9
$UCSXDIR
 10
1.0
 20
0.0
 30
0.0
  9
$UCSYDIR
 10
0.0
 20
1.0
 30
0.0
  9
$PUCSNAME
  2

  9
$PUCSORG
 10
0.0
 20
0.0
 30
0.0
  9
$PUCSXDIR
 10
1.0
 20
0.0
 30
0.0
  9
$PUCSYDIR
 10
0.0
 20
1.0
 30
0.0
  9
$USERI1
 70
     0
  9
$USERI2
 70
     0
  9
$USERI3
 70
     0
  9
$USERI4
 70
     0
  9
$USERI5
 70
     0
  9
$USERR1
 40
0.0
  9
$USERR2
 40
0.0
  9
$USERR3
 40
0.0
  9
$USERR4
 40
0.0
  9
$USERR5
 40
0.0
  9
$WORLDVIEW
 70
     1
  9
$SHADEDGE
 70
     3
  9
$SHADEDIF
 70
    70
  9
$TILEMODE
 70
     1
  9
$MAXACTVP
 70
    64
  9
$PINSBASE
 10
0.0
 20
0.0
 30
0.0
  9
$PLIMCHECK
 70
     0
  9
$PEXTMIN
 10
1.0000000000E+20
 20
1.0000000000E+20
 30
1.0000000000E+20
  9
$PEXTMAX
 10
-1.0000000000E+20
 20
-1.0000000000E+20
 30
-1.0000000000E+20
  9
$PLIMMIN
 10
0.0
 20
0.0
  9
$PLIMMAX
 10
12.0
 20
9.0
  9
$UNITMODE
 70
     0
  9
$VISRETAIN
 70
     1
  9
$PLINEGEN
 70
     0
  9
$PSLTSCALE
 70
     1
  9
$TREEDEPTH
 70
  3020
  9
$PICKSTYLE
 70
     1
  9
$CMLSTYLE
  2
STANDARD
  9
$CMLJUST
 70
     0
  9
$CMLSCALE
 40
1.0
  9
$PROXYGRAPHICS
 70
     1
  9
$MEASUREMENT
 70
     0
  0
ENDSEC
  0
SECTION
  2
CLASSES
  0
CLASS
  1
ACDBDICTIONARYWDFLT
  2
AcDbDictionaryWithDefault
  3
ObjectDBX Classes
 90
        0
280
     0
281
     0
  0
CLASS
  1
VISUALSTYLE
  2
AcDbVisualStyle
  3
ObjectDBX Classes
 90
     4095
280
     0
281
     0
  0
CLASS
  1
MATERIAL
  2
AcDbMaterial
  3
ObjectDBX Classes
 90
     1153
280
     0
281
     0
  0
CLASS
  1
SCALE
  2
AcDbScale
  3
ObjectDBX Classes
 90
     1153
280
     0
281
     0
  0
CLASS
  1
DICTIONARYVAR
  2
AcDbDictionaryVar
  3
ObjectDBX Classes
 90
        0
280
     0
281
     0
  0
CLASS
  1
XRECORD
  2
AcDbXrecord
  3
AutoCAD 2000
 90
        0
280
     0
281
     0
  0
CLASS
  1
LWPOLYLINE
  2
AcDbPolyline
  3
AutoCAD 2000
 90
        0
280
     0
281
     1
  0
CLASS
  1
HATCH
  2
AcDbHatch
  3
AutoCAD 2000
 90
        0
280
     0
281
     1
  0
CLASS
  1
ACDBPLACEHOLDER
  2
AcDbPlaceHolder
  3
ObjectDBX Classes
 90
        0
280
     0
281
     0
  0
CLASS
  1
LAYOUT
  2
AcDbLayout
  3
ObjectDBX Classes
 90
        0
280
     0
281
     0
  0
ENDSEC
  0
SECTION
  2
TABLES
  0
TABLE
  2
VPORT
  5
8
330
0
100
AcDbSymbolTable
 70
     1
  0
VPORT
  5
29
330
8
100
AcDbSymbolTableRecord
100
AcDbViewportTableRecord
  2
*ACTIVE
 70
     0
 10
0.0
 20
0.0
 11
1.0
 21
1.0
 12
9.0
 22
4.25
 13
0.0
 23
0.0
 14
0.5
 24
0.5
 15
0.5
 25
0.5
 16
0.0
 26
0.0
 36
1.0
 17
0.0
 27
0.0
 37
0.0
 40
8.5
 41
2.1176470588
 42
50.0
 43
0.0
 44
0.0
 50
0.0
 51
0.0
 71
     0
 72
  2000
 73
     1
 74
     3
 75
     0
 76
     0
 77
     0
 78
     0
  0
ENDTAB
  0
TABLE
  2
LTYPE
  5
5
330
0
100
AcDbSymbolTable
 70
     8
  0
LTYPE
  5
14
330
5
100
AcDbSymbolTableRecord
100
AcDbLinetypeTableRecord
  2
BYBLOCK
 70
     0
  3

 72
    65
 73
     0
 40
0.0
  0
LTYPE
  5
15
330
5
100
AcDbSymbolTableRecord
100
AcDbLinetypeTableRecord
  2
BYLAYER
 70
     0
  3

 72
    65
 73
     0
 40
0.0
  0
LTYPE
  5
16
330
5
100
AcDbSymbolTableRecord
100
AcDbLinetypeTableRecord
  2
CONTINUOUS
 70
     0
  3
Solid line
 72
    65
 73
     0
 40
0.0
  0
LTYPE
  5
3F
330
5
100
AcDbSymbolTableRecord
100
AcDbLinetypeTableRecord
  2
SLD-SOLID
 70
     0
  3
SolidWorks Line Style
 72
    65
 73
     0
 40
0.0
  0
LTYPE
  5
40
330
5
100
AcDbSymbolTableRecord
100
AcDbLinetypeTableRecord
  2
SLD-DASHED
 70
     0
  3
SolidWorks Line Style
 72
    65
 73
     2
 40
0.075
 49
0.05
 74
     0
 49
-0.025
 74
     0
  0
LTYPE
  5
41
330
5
100
AcDbSymbolTableRecord
100
AcDbLinetypeTableRecord
  2
SLD-PHANTOM
 70
     0
  3
SolidWorks Line Style
 72
    65
 73
     6
 40
0.5
 49
0.25
 74
     0
 49
-0.05
 74
     0
 49
0.05
 74
     0
 49
-0.05
 74
     0
 49
0.05
 74
     0
 49
-0.05
 74
     0
  0
LTYPE
  5
42
330
5
100
AcDbSymbolTableRecord
100
AcDbLinetypeTableRecord
  2
SLD-CHAIN
 70
     0
  3
SolidWorks Line Style
 72
    65
 73
     4
 40
0.4
 49
0.25
 74
     0
 49
-0.05
 74
     0
 49
0.05
 74
     0
 49
-0.05
 74
     0
  0
LTYPE
  5
43
330
5
100
AcDbSymbolTableRecord
100
AcDbLinetypeTableRecord
  2
SLD-CENTER
 70
     0
  3
SolidWorks Line Style
 72
    65
 73
     4
 40
0.75
 49
0.6
 74
     0
 49
-0.05
 74
     0
 49
0.05
 74
     0
 49
-0.05
 74
     0
  0
LTYPE
  5
44
330
5
100
AcDbSymbolTableRecord
100
AcDbLinetypeTableRecord
  2
SLD-STITCH
 70
     0
  3
SolidWorks Line Style
 72
    65
 73
     2
 40
0.025
 49
0.0
 74
     0
 49
-0.025
 74
     0
  0
LTYPE
  5
45
330
5
100
AcDbSymbolTableRecord
100
AcDbLinetypeTableRecord
  2
SLD-THIN-THICK-CHAIN
 70
     0
  3
SolidWorks Line Style
 72
    65
 73
     4
 40
0.4
 49
0.25
 74
     0
 49
-0.05
 74
     0
 49
0.05
 74
     0
 49
-0.05
 74
     0
  0
ENDTAB
  0
TABLE
  2
LAYER
  5
2
330
0
100
AcDbSymbolTable
 70
     3
  0
LAYER
  5
10
330
2
100
AcDbSymbolTableRecord
100
AcDbLayerTableRecord
  2
0
 70
     0
 62
     7
  6
CONTINUOUS
  0
LAYER
  5
46
330
2
100
AcDbSymbolTableRecord
100
AcDbLayerTableRecord
  2
SLD-0
 70
     0
 62
    -7
  6
SLD-SOLID
  0
LAYER
  5
47
330
2
100
AcDbSymbolTableRecord
100
AcDbLayerTableRecord
  2
FORMAT
 70
     0
 62
     7
  6
SLD-SOLID
  0
ENDTAB
  0
TABLE
  2
STYLE
  5
3
330
0
100
AcDbSymbolTable
 70
     2
  0
STYLE
  5
11
330
3
100
AcDbSymbolTableRecord
100
AcDbTextStyleTableRecord
  2
STANDARD
 70
     0
 40
0.0
 41
1.0
 50
0.0
 71
     0
 42
0.2
  3
ARIAL.TTF
  4

1001
ACAD
1000
ARIAL
1071
       34
  0
STYLE
  5
4DC
330
3
100
AcDbSymbolTableRecord
100
AcDbTextStyleTableRecord
  2
SLDTEXTSTYLE0
 70
     0
 40
0.0
 41
0.948
 50
0.0
 71
     0
 42
0.2
  3
ARIAL.TTF
  4

1001
ACAD
1000
Arial
1071
      290
  0
ENDTAB
  0
TABLE
  2
VIEW
  5
6
330
0
100
AcDbSymbolTable
 70
     0
  0
ENDTAB
  0
TABLE
  2
UCS
  5
7
330
0
100
AcDbSymbolTable
 70
     0
  0
ENDTAB
  0
TABLE
  2
APPID
  5
9
330
0
100
AcDbSymbolTable
 70
     1
  0
APPID
  5
12
330
9
100
AcDbSymbolTableRecord
100
AcDbRegAppTableRecord
  2
ACAD
 70
     0
  0
ENDTAB
  0
TABLE
  2
DIMSTYLE
  5
A
330
0
100
AcDbSymbolTable
 70
     1
  0
DIMSTYLE
105
27
330
A
100
AcDbSymbolTableRecord
100
AcDbDimStyleTableRecord
  2
STANDARD
 70
     0
  3

  4

  5

  6

  7

 40
1.0
 41
0.18
 42
0.0625
 43
0.38
 44
0.18
 45
0.0
 46
0.0
 47
0.0
 48
0.0
140
0.18
141
0.09
142
0.0
143
25.4
144
1.0
145
0.0
146
1.0
147
0.09
 71
     0
 72
     0
 73
     1
 74
     1
 75
     0
 76
     0
 77
     0
 78
     0
170
     0
171
     2
172
     0
173
     0
174
     0
175
     0
176
     0
177
     0
178
     0
270
     2
271
     4
272
     4
273
     2
274
     2
340
11
275
     0
280
     0
281
     0
282
     0
283
     1
284
     0
285
     0
286
     0
287
     3
288
     0
  0
ENDTAB
  0
TABLE
  2
BLOCK_RECORD
  5
1
330
0
100
AcDbSymbolTable
 70
     2
  0
BLOCK_RECORD
  5
1F
330
1
100
AcDbSymbolTableRecord
100
AcDbBlockTableRecord
  2
*MODEL_SPACE
  0
BLOCK_RECORD
  5
1B
330
1
100
AcDbSymbolTableRecord
100
AcDbBlockTableRecord
  2
*PAPER_SPACE
  0
BLOCK_RECORD
  5
4D9
330
1
100
AcDbSymbolTableRecord
100
AcDbBlockTableRecord
  2
SW_NOTE_0
  0
ENDTAB
  0
ENDSEC
  0
SECTION
  2
BLOCKS
  0
BLOCK
  5
20
330
1F
100
AcDbEntity
  8
0
100
AcDbBlockBegin
  2
*MODEL_SPACE
 70
     0
 10
0.0
 20
0.0
 30
0.0
  3
*MODEL_SPACE
  1

  0
ENDBLK
  5
21
330
1F
100
AcDbEntity
  8
0
100
AcDbBlockEnd
  0
BLOCK
  5
1C
330
1B
100
AcDbEntity
 67
     1
  8
0
100
AcDbBlockBegin
  2
*PAPER_SPACE
 70
     0
 10
0.0
 20
0.0
 30
0.0
  3
*PAPER_SPACE
  1

  0
ENDBLK
  5
1D
330
1B
100
AcDbEntity
 67
     1
  8
0
100
AcDbBlockEnd
  0
BLOCK
  5
4DA
330
4D9
100
AcDbEntity
  8
0
100
AcDbBlockBegin
  2
SW_NOTE_0
 70
     0
 10
0.0
 20
0.0
 30
0.0
  3
SW_NOTE_0
  1

  0
MTEXT
  5
4FF
330
4D9
100
AcDbEntity
  8
FORMAT
 62
     0
100
AcDbMText
 10
0.0
 20
0.1342778896
 30
0.0
 40
0.1041666667
 41
0.0
 71
     1
 72
     1
  1
FL-30
  7
SLDTEXTSTYLE0
  0
MTEXT
  5
500
330
4D9
100
AcDbEntity
  8
FORMAT
 62
     0
100
AcDbMText
 10
-0.0038580221
 20
-0.0046109977
 30
0.0
 40
0.1041666667
 41
0.0
 71
     1
 72
     1
  1
2CRA
  7
SLDTEXTSTYLE0
  0
MTEXT
  5
501
330
4D9
100
AcDbEntity
  8
FORMAT
 62
     0
100
AcDbMText
 10
-0.22376541
 20
-0.1434998849
 30
0.0
 40
0.1041666667
 41
0.0
 71
     1
 72
     1
  1
JET THROW
  7
SLDTEXTSTYLE0
  0
MTEXT
  5
502
330
4D9
100
AcDbEntity
  8
FORMAT
 62
     0
100
AcDbMText
 10
-0.2121913804
 20
-0.2823887721
 30
0.0
 40
0.1041666667
 41
0.0
 71
     1
 72
     1
  1
BORDER 77
  7
SLDTEXTSTYLE0
  0
ENDBLK
  5
4DB
330
4D9
100
AcDbEntity
  8
0
100
AcDbBlockEnd
  0
ENDSEC
  0
SECTION
  2
ENTITIES
  0
ARC
  5
48
330
1F
100
AcDbEntity
  8
0
  6
SLD-SOLID
 62
     7
100
AcDbCircle
 10
12.2576143277
 20
4.3899148767
 30
0.0
 40
0.0199999999999996
100
AcDbArc
 50
180.0
 51
241.8571552447
  0
ARC
  5
49
330
1F
100
AcDbEntity
  8
0
  6
SLD-SOLID
 62
     7
100
AcDbCircle
 10
12.5906143277
 20
4.3899148767
 30
0.0
 40
0.0199999999999996
100
AcDbArc
 50
298.1428447553
 51
0.0
  0
LINE
  5
4A
330
1F
100
AcDbEntity
  8
0
  6
SLD-SOLID
 62
     7
100
AcDbLine
 10
12.2376142258
 20
4.4381812319
 30
0.0
 11
12.2376142258
 21
4.3899148895
 31
0.0
  0
LINE
  5
4B
330
1F
100
AcDbEntity
  8
0
  6
SLD-SOLID
 62
     7
100
AcDbLine
 10
12.6106143435
 20
4.3899148895
 30
0.0
 11
12.6106143435
 21
4.4381812319
 31
0.0
  0
ARC
  5
4C
330
1F
100
AcDbEntity
  8
0
  6
SLD-SOLID
 62
     7
100
AcDbCircle
 10
12.4241143277
 20
4.7011812417
 30
0.0
 40
0.3729999999999997
100
AcDbArc
 50
277.6034084169
 51
298.1428447553
  0
ARC
  5
4D
330
1F
100
AcDbEntity
  8
0
  6
SLD-SOLID
 62
     7
100
AcDbCircle
 10
12.4241143277
 20
4.7011812417
 30
0.0
 40
0.3730000000000006
100
AcDbArc
 50
241.8571552447
 51
262.3965915831
  0
LINE
  5
4E
330
1F
100
AcDbEntity
  8
0
  6
SLD-SOLID
 62
     7
100
AcDbLine
 10
12.5191144672
 20
6.604847909
 30
0.0
 11
12.4946143769
 21
6.6189930123
 31
0.0
  0
LINE
  5
4F
330
1F
100
AcDbEntity
  8
0
  6
SLD-SOLID
 62
     7
100
AcDbLine
 10
12.3536141924
 20
6.6189930123
 30
0.0
 11
12.3291143954
 21
6.604847909
 31
0.0
  0
LINE
  5
50
330
1F
100
AcDbEntity
  8
0
  6
SLD-SOLID
 62
     7
100
AcDbLine
 10
12.5191144672
 20
6.3826256895
 30
0.0
 11
12.4946143769
 21
6.3967707928
 31
0.0
  0
LINE
  5
51
330
1F
100
AcDbEntity
  8
0
  6
SLD-SOLID
 62
     7
100
AcDbLine
 10
12.3536141924
 20
6.3967707928
 30
0.0
 11
12.3291143954
 21
6.3826256895
 31
0.0
  0
LINE
  5
52
330
1F
100
AcDbEntity
  8
0
  6
SLD-SOLID
 62
     7
100
AcDbLine
 10
12.3291143954
 20
6.327070098
 30
0.0
 11
12.3536141924
 21
6.312925068
 31
0.0
  0
LINE
  5
53
330
1F
100
AcDbEntity
  8
0
  6
SLD-SOLID
 62
     7
100
AcDbLine
 10
12.4946143769
 20
6.312925068
 30
0.0
 11
12.5191144672
 21
6.327070098
 31
0.0
  0
LINE
  5
54
330
1F
100
AcDbEntity
  8
0
  6
SLD-SOLID
 62
     7
100
AcDbLine
 10
12.3291143954
 20
6.604847909
 30
0.0
 11
12.3536141924
 21
6.5907028058
 31
0.0
  0
LINE
  5
55
330
1F
100
AcDbEntity
  8
0
  6
SLD-SOLID
 62
     7
100
AcDbLine
 10
12.4946143769
 20
6.5907028058
 30
0.0
 11
12.5191144672
 21
6.604847909
 31
0.0
  0
LINE
  5
56
330
1F
100
AcDbEntity
  8
0
  6
SLD-SOLID
 62
     7
100
AcDbLine
 10
12.5191144672
 20
6.5492923908
 30
0.0
 11
12.4946143769
 21
6.5634374941
 31
0.0
  0
LINE
  5
57
330
1F
100
AcDbEntity
  8
0
  6
SLD-SOLID
 62
     7
100
AcDbLine
 10
12.3536141924
 20
6.5634374941
 30
0.0
 11
12.3291143954
 21
6.5492923908
 31
0.0
  0
LINE
  5
58
330
1F
100
AcDbEntity
  8
0
  6
SLD-SOLID
 62
     7
100
AcDbLine
 10
12.3291143954
 20
6.5492923908
 30
0.0
 11
12.3536141924
 21
6.5351472876
 31
0.0
  0
LINE
  5
59
330
1F
100
AcDbEntity
  8
0
  6
SLD-SOLID
 62
     7
100
AcDbLine
 10
12.4946143769
 20
6.5351472876
 30
0.0
 11
12.5191144672
 21
6.5492923908
 31
0.0
  0
LINE
  5
5A
330
1F
100
AcDbEntity
  8
0
  6
SLD-SOLID
 62
     7
100
AcDbLine
 10
12.5191144672
 20
6.6604034273
 30
0.0
 11
12.4946143769
 21
6.6745485305
 31
0.0
  0
LINE
  5
5B
330
1F
100
AcDbEntity
  8
0
  6
SLD-SOLID
 62
     7
100
AcDbLine
 10
12.3536141924
 20
6.6745485305
 30
0.0
 11
12.3291143954
 21
6.6604034273
 31
0.0
  0
LINE
  5
5C
330
1F
100
AcDbEntity
  8
0
  6
SLD-SOLID
 62
     7
100
AcDbLine
 10
12.5191144672
 20
6.4381812077
 30
0.0
 11
12.4946143769
 21
6.452326311
 31
0.0
  0
LINE
  5
5D
330
1F
100
AcDbEntity
  8
0
  6
SLD-SOLID
 62
     7
100
AcDbLine
 10
12.3536141924
 20
6.452326311
 30
0.0
 11
12.3291143954
 21
6.4381812077
 31
0.0
  0
LINE
  5
5E
330
1F
100
AcDbEntity
  8
0
  6
SLD-SOLID
 62
     7
100
AcDbLine
 10
12.5191144672
 20
6.4937367993
 30
0.0
 11
12.4946143769
 21
6.5078818292
 31
0.0
  0
LINE
  5
5F
330
1F
100
AcDbEntity
  8
0
  6
SLD-SOLID
 62
     7
100
AcDbLine
 10
12.3536141924
 20
6.5078818292
 30
0.0
 11
12.3291143954
 21
6.4937367993
 31
0.0
  0
LINE
  5
60
330
1F
100
AcDbEntity
  8
0
  6
SLD-SOLID
 62
     7
100
AcDbLine
 10
12.3291143954
 20
6.4937367993
 30
0.0
 11
12.3536141924
 21
6.479591696
 31
0.0
  0
LINE
  5
61
330
1F
100
AcDbEntity
  8
0
  6
SLD-SOLID
 62
     7
100
AcDbLine
 10
12.4946143769
 20
6.479591696
 30
0.0
 11
12.5191144672
 21
6.4937367993
 31
0.0
  0
LINE
  5
62
330
1F
100
AcDbEntity
  8
0
  6
SLD-SOLID
 62
     7
100
AcDbLine
 10
12.5191144672
 20
6.2715145797
 30
0.0
 11
12.4946143769
 21
6.285659683
 31
0.0
  0
LINE
  5
63
330
1F
100
AcDbEntity
  8
0
  6
SLD-SOLID
 62
     7
100
AcDbLine
 10
12.3536141924
 20
6.285659683
 30
0.0
 11
12.3291143954
 21
6.2715145797
 31
0.0
  0
LINE
  5
64
330
1F
100
AcDbEntity
  8
0
  6
SLD-SOLID
 62
     7
100
AcDbLine
 10
12.5191144672
 20
6.7159590921
 30
0.0
 11
12.4946143769
 21
6.7301040487
 31
0.0
  0
LINE
  5
65
330
1F
100
AcDbEntity
  8
0
  6
SLD-SOLID
 62
     7
100
AcDbLine
 10
12.3536141924
 20
6.7301040487
 30
0.0
 11
12.3291143954
 21
6.7159590921
 31
0.0
  0
LINE
  5
66
330
1F
100
AcDbEntity
  8
0
  6
SLD-SOLID
 62
     7
100
AcDbLine
 10
12.3291143954
 20
6.6604034273
 30
0.0
 11
12.3536141924
 21
6.646258324
 31
0.0
  0
LINE
  5
67
330
1F
100
AcDbEntity
  8
0
  6
SLD-SOLID
 62
     7
100
AcDbLine
 10
12.4946143769
 20
6.646258324
 30
0.0
 11
12.5191144672
 21
6.6604034273
 31
0.0
  0
LINE
  5
68
330
1F
100
AcDbEntity
  8
0
  6
SLD-SOLID
 62
     7
100
AcDbLine
 10
12.3291143954
 20
6.2715145797
 30
0.0
 11
12.3536141924
 21
6.2573694765
 31
0.0
  0
LINE
  5
69
330
1F
100
AcDbEntity
  8
0
  6
SLD-SOLID
 62
     7
100
AcDbLine
 10
12.4946143769
 20
6.2573694765
 30
0.0
 11
12.5191144672
 21
6.2715145797
 31
0.0
  0
LINE
  5
6A
330
1F
100
AcDbEntity
  8
0
  6
SLD-SOLID
 62
     7
100
AcDbLine
 10
12.3291143954
 20
6.4381812077
 30
0.0
 11
12.3536141924
 21
6.4240361778
 31
0.0
  0
LINE
  5
6B
330
1F
100
AcDbEntity
  8
0
  6
SLD-SOLID
 62
     7
100
AcDbLine
 10
12.4946143769
 20
6.4240361778
 30
0.0
 11
12.5191144672
 21
6.4381812077
 31
0.0
  0
LINE
  5
6C
330
1F
100
AcDbEntity
  8
0
  6
SLD-SOLID
 62
     7
100
AcDbLine
 10
12.3291143954
 20
6.3826256895
 30
0.0
 11
12.3536141924
 21
6.3684805862
 31
0.0
  0
LINE
  5
6D
330
1F
100
AcDbEntity
  8
0
  6
SLD-SOLID
 62
     7
100
AcDbLine
 10
12.4946143769
 20
6.3684805862
 30
0.0
 11
12.5191144672
 21
6.3826256895
 31
0.0
  0
LINE
  5
6E
330
1F
100
AcDbEntity
  8
0
  6
SLD-SOLID
 62
     7
100
AcDbLine
 10
12.3291143954
 20
6.7159590921
 30
0.0
 11
12.3536141924
 21
6.7018139889
 31
0.0
  0
LINE
  5
6F
330
1F
100
AcDbEntity
  8
0
  6
SLD-SOLID
 62
     7
100
AcDbLine
 10
12.4946143769
 20
6.7018139889
 30
0.0
 11
12.5191144672
 21
6.7159590921
 31
0.0
  0
LINE
  5
70
330
1F
100
AcDbEntity
  8
0
  6
SLD-SOLID
 62
     7
100
AcDbLine
 10
12.5191144672
 20
6.327070098
 30
0.0
 11
12.4946143769
 21
6.3412152012
 31
0.0
  0
LINE
  5
71
330
1F
100
AcDbEntity
  8
0
  6
SLD-SOLID
 62
     7
100
AcDbLine
 10
12.3536141924
 20
6.3412152012
 30
0.0
 11
12.3291143954
 21
6.327070098
 31
0.0
  0
LINE
  5
72
330
1F
100
AcDbEntity
  8
0
  6
SLD-SOLID
 62
     7
100
AcDbLine
 10
12.5191144672
 20
5.5492923479
 30
0.0
 11
12.4946143769
 21
5.5634374328
 31
0.0
  0
LINE
  5
73
330
1F
100
AcDbEntity
  8
0
  6
SLD-SOLID
 62
     7
100
AcDbLine
 10
12.3536141924
 20
5.5634374328
 30
0.0
 11
12.3291143954
 21
5.5492923479
 31
0.0
  0
LINE
  5
74
330
1F
100
AcDbEntity
  8
0
  6
SLD-SOLID
 62
     7
100
AcDbLine
 10
12.5191144672
 20
5.493736793
 30
0.0
 11
12.4946143769
 21
5.507881878
 31
0.0
  0
LINE
  5
75
330
1F
100
AcDbEntity
  8
0
  6
SLD-SOLID
 62
     7
100
AcDbLine
 10
12.3536141924
 20
5.507881878
 30
0.0
 11
12.3291143954
 21
5.493736793
 31
0.0
  0
LINE
  5
76
330
1F
100
AcDbEntity
  8
0
  6
SLD-SOLID
 62
     7
100
AcDbLine
 10
12.3291143954
 20
5.049292354
 30
0.0
 11
12.3536141924
 21
5.035147269
 31
0.0
  0
LINE
  5
77
330
1F
100
AcDbEntity
  8
0
  6
SLD-SOLID
 62
     7
100
AcDbLine
 10
12.4946143769
 20
5.035147269
 30
0.0
 11
12.5191144672
 21
5.049292354
 31
0.0
  0
LINE
  5
78
330
1F
100
AcDbEntity
  8
0
  6
SLD-SOLID
 62
     7
100
AcDbLine
 10
12.3291143954
 20
5.9381812504
 30
0.0
 11
12.3536141924
 21
5.9240361472
 31
0.0
  0
LINE
  5
79
330
1F
100
AcDbEntity
  8
0
  6
SLD-SOLID
 62
     7
100
AcDbLine
 10
12.4946143769
 20
5.9240361472
 30
0.0
 11
12.5191144672
 21
5.9381812504
 31
0.0
  0
LINE
  5
7A
330
1F
100
AcDbEntity
  8
0
  6
SLD-SOLID
 62
     7
100
AcDbLine
 10
12.3291143954
 20
5.493736793
 30
0.0
 11
12.3536141924
 21
5.4795917081
 31
0.0
  0
LINE
  5
7B
330
1F
100
AcDbEntity
  8
0
  6
SLD-SOLID
 62
     7
100
AcDbLine
 10
12.4946143769
 20
5.4795917081
 30
0.0
 11
12.5191144672
 21
5.493736793
 31
0.0
  0
LINE
  5
7C
330
1F
100
AcDbEntity
  8
0
  6
SLD-SOLID
 62
     7
100
AcDbLine
 10
12.3291143954
 20
5.1048479088
 30
0.0
 11
12.3536141924
 21
5.0907028239
 31
0.0
  0
LINE
  5
7D
330
1F
100
AcDbEntity
  8
0
  6
SLD-SOLID
 62
     7
100
AcDbLine
 10
12.4946143769
 20
5.0907028239
 30
0.0
 11
12.5191144672
 21
5.1048479088
 31
0.0
  0
LINE
  5
7E
330
1F
100
AcDbEntity
  8
0
  6
SLD-SOLID
 62
     7
100
AcDbLine
 10
12.3291143954
 20
4.9937367991
 30
0.0
 11
12.3536141924
 21
4.9795917141
 31
0.0
  0
LINE
  5
7F
330
1F
100
AcDbEntity
  8
0
  6
SLD-SOLID
 62
     7
100
AcDbLine
 10
12.4946143769
 20
4.9795917141
 30
0.0
 11
12.5191144672
 21
4.9937367991
 31
0.0
  0
LINE
  5
80
330
1F
100
AcDbEntity
  8
0
  6
SLD-SOLID
 62
     7
100
AcDbLine
 10
12.5191144672
 20
4.9937367991
 30
0.0
 11
12.4946143769
 21
5.007881884
 31
0.0
  0
LINE
  5
81
330
1F
100
AcDbEntity
  8
0
  6
SLD-SOLID
 62
     7
100
AcDbLine
 10
12.3536141924
 20
5.007881884
 30
0.0
 11
12.3291143954
 21
4.9937367991
 31
0.0
  0
LINE
  5
82
330
1F
100
AcDbEntity
  8
0
  6
SLD-SOLID
 62
     7
100
AcDbLine
 10
12.3291143954
 20
5.8270701407
 30
0.0
 11
12.3536141924
 21
5.8129250374
 31
0.0
  0
LINE
  5
83
330
1F
100
AcDbEntity
  8
0
  6
SLD-SOLID
 62
     7
100
AcDbLine
 10
12.4946143769
 20
5.8129250374
 30
0.0
 11
12.5191144672
 21
5.8270701407
 31
0.0
  0
LINE
  5
84
330
1F
100
AcDbEntity
  8
0
  6
SLD-SOLID
 62
     7
100
AcDbLine
 10
12.5191144672
 20
5.049292354
 30
0.0
 11
12.4946143769
 21
5.0634374389
 31
0.0
  0
LINE
  5
85
330
1F
100
AcDbEntity
  8
0
  6
SLD-SOLID
 62
     7
100
AcDbLine
 10
12.3536141924
 20
5.0634374389
 30
0.0
 11
12.3291143954
 21
5.049292354
 31
0.0
  0
LINE
  5
86
330
1F
100
AcDbEntity
  8
0
  6
SLD-SOLID
 62
     7
100
AcDbLine
 10
12.5191144672
 20
5.7159590309
 30
0.0
 11
12.4946143769
 21
5.7301040975
 31
0.0
  0
LINE
  5
87
330
1F
100
AcDbEntity
  8
0
  6
SLD-SOLID
 62
     7
100
AcDbLine
 10
12.3536141924
 20
5.7301040975
 30
0.0
 11
12.3291143954
 21
5.7159590309
 31
0.0
  0
LINE
  5
88
330
1F
100
AcDbEntity
  8
0
  6
SLD-SOLID
 62
     7
100
AcDbLine
 10
12.3291143954
 20
5.7159590309
 30
0.0
 11
12.3536141924
 21
5.7018139276
 31
0.0
  0
LINE
  5
89
330
1F
100
AcDbEntity
  8
0
  6
SLD-SOLID
 62
     7
100
AcDbLine
 10
12.4946143769
 20
5.7018139276
 30
0.0
 11
12.5191144672
 21
5.7159590309
 31
0.0
  0
LINE
  5
8A
330
1F
100
AcDbEntity
  8
0
  6
SLD-SOLID
 62
     7
100
AcDbLine
 10
12.3291143954
 20
5.7715145858
 30
0.0
 11
12.3536141924
 21
5.7573694825
 31
0.0
  0
LINE
  5
8B
330
1F
100
AcDbEntity
  8
0
  6
SLD-SOLID
 62
     7
100
AcDbLine
 10
12.4946143769
 20
5.7573694825
 30
0.0
 11
12.5191144672
 21
5.7715145858
 31
0.0
  0
LINE
  5
8C
330
1F
100
AcDbEntity
  8
0
  6
SLD-SOLID
 62
     7
100
AcDbLine
 10
12.5191144672
 20
5.4381812381
 30
0.0
 11
12.4946143769
 21
5.4523263231
 31
0.0
  0
LINE
  5
8D
330
1F
100
AcDbEntity
  8
0
  6
SLD-SOLID
 62
     7
100
AcDbLine
 10
12.3536141924
 20
5.4523263231
 30
0.0
 11
12.3291143954
 21
5.4381812381
 31
0.0
  0
LINE
  5
8E
330
1F
100
AcDbEntity
  8
0
  6
SLD-SOLID
 62
     7
100
AcDbLine
 10
12.5191144672
 20
5.8826256955
 30
0.0
 11
12.4946143769
 21
5.8967707621
 31
0.0
  0
LINE
  5
8F
330
1F
100
AcDbEntity
  8
0
  6
SLD-SOLID
 62
     7
100
AcDbLine
 10
12.3536141924
 20
5.8967707621
 30
0.0
 11
12.3291143954
 21
5.8826256955
 31
0.0
  0
LINE
  5
90
330
1F
100
AcDbEntity
  8
0
  6
SLD-SOLID
 62
     7
100
AcDbLine
 10
12.3291143954
 20
5.8826256955
 30
0.0
 11
12.3536141924
 21
5.8684805923
 31
0.0
  0
LINE
  5
91
330
1F
100
AcDbEntity
  8
0
  6
SLD-SOLID
 62
     7
100
AcDbLine
 10
12.4946143769
 20
5.8684805923
 30
0.0
 11
12.5191144672
 21
5.8826256955
 31
0.0
  0
LINE
  5
92
330
1F
100
AcDbEntity
  8
0
  6
SLD-SOLID
 62
     7
100
AcDbLine
 10
12.5191144672
 20
5.9381812504
 30
0.0
 11
12.4946143769
 21
5.9523263537
 31
0.0
  0
LINE
  5
93
330
1F
100
AcDbEntity
  8
0
  6
SLD-SOLID
 62
     7
100
AcDbLine
 10
12.3536141924
 20
5.9523263537
 30
0.0
 11
12.3291143954
 21
5.9381812504
 31
0.0
  0
LINE
  5
94
330
1F
100
AcDbEntity
  8
0
  6
SLD-SOLID
 62
     7
100
AcDbLine
 10
12.3291143954
 20
5.4381812381
 30
0.0
 11
12.3536141924
 21
5.4240361624
 31
0.0
  0
LINE
  5
95
330
1F
100
AcDbEntity
  8
0
  6
SLD-SOLID
 62
     7
100
AcDbLine
 10
12.4946143769
 20
5.4240361624
 30
0.0
 11
12.5191144672
 21
5.4381812381
 31
0.0
  0
LINE
  5
96
330
1F
100
AcDbEntity
  8
0
  6
SLD-SOLID
 62
     7
100
AcDbLine
 10
12.3291143954
 20
5.660403476
 30
0.0
 11
12.3536141924
 21
5.6462583728
 31
0.0
  0
LINE
  5
97
330
1F
100
AcDbEntity
  8
0
  6
SLD-SOLID
 62
     7
100
AcDbLine
 10
12.4946143769
 20
5.6462583728
 30
0.0
 11
12.5191144672
 21
5.660403476
 31
0.0
  0
LINE
  5
98
330
1F
100
AcDbEntity
  8
0
  6
SLD-SOLID
 62
     7
100
AcDbLine
 10
12.5191144672
 20
5.3270701284
 30
0.0
 11
12.4946143769
 21
5.3412152133
 31
0.0
  0
LINE
  5
99
330
1F
100
AcDbEntity
  8
0
  6
SLD-SOLID
 62
     7
100
AcDbLine
 10
12.3536141924
 20
5.3412152133
 30
0.0
 11
12.3291143954
 21
5.3270701284
 31
0.0
  0
LINE
  5
9A
330
1F
100
AcDbEntity
  8
0
  6
SLD-SOLID
 62
     7
100
AcDbLine
 10
12.3291143954
 20
5.3270701284
 30
0.0
 11
12.3536141924
 21
5.312925048
 31
0.0
  0
LINE
  5
9B
330
1F
100
AcDbEntity
  8
0
  6
SLD-SOLID
 62
     7
100
AcDbLine
 10
12.4946143769
 20
5.312925048
 30
0.0
 11
12.5191144672
 21
5.3270701284
 31
0.0
  0
LINE
  5
9C
330
1F
100
AcDbEntity
  8
0
  6
SLD-SOLID
 62
     7
100
AcDbLine
 10
12.3291143954
 20
5.2159590186
 30
0.0
 11
12.3536141924
 21
5.2018139383
 31
0.0
  0
LINE
  5
9D
330
1F
100
AcDbEntity
  8
0
  6
SLD-SOLID
 62
     7
100
AcDbLine
 10
12.4946143769
 20
5.2018139383
 30
0.0
 11
12.5191144672
 21
5.2159590186
 31
0.0
  0
LINE
  5
9E
330
1F
100
AcDbEntity
  8
0
  6
SLD-SOLID
 62
     7
100
AcDbLine
 10
12.3291143954
 20
5.6048479211
 30
0.0
 11
12.3536141924
 21
5.5907028179
 31
0.0
  0
LINE
  5
9F
330
1F
100
AcDbEntity
  8
0
  6
SLD-SOLID
 62
     7
100
AcDbLine
 10
12.4946143769
 20
5.5907028179
 30
0.0
 11
12.5191144672
 21
5.6048479211
 31
0.0
  0
LINE
  5
A0
330
1F
100
AcDbEntity
  8
0
  6
SLD-SOLID
 62
     7
100
AcDbLine
 10
12.3291143954
 20
5.5492923479
 30
0.0
 11
12.3536141924
 21
5.535147263
 31
0.0
  0
LINE
  5
A1
330
1F
100
AcDbEntity
  8
0
  6
SLD-SOLID
 62
     7
100
AcDbLine
 10
12.4946143769
 20
5.535147263
 30
0.0
 11
12.5191144672
 21
5.5492923479
 31
0.0
  0
LINE
  5
A2
330
1F
100
AcDbEntity
  8
0
  6
SLD-SOLID
 62
     7
100
AcDbLine
 10
12.3291143954
 20
5.1604034637
 30
0.0
 11
12.3536141924
 21
5.1462583788
 31
0.0
  0
LINE
  5
A3
330
1F
100
AcDbEntity
  8
0
  6
SLD-SOLID
 62
     7
100
AcDbLine
 10
12.4946143769
 20
5.1462583788
 30
0.0
 11
12.5191144672
 21
5.1604034637
 31
0.0
  0
LINE
  5
A4
330
1F
100
AcDbEntity
  8
0
  6
SLD-SOLID
 62
     7
100
AcDbLine
 10
12.5191144672
 20
5.8270701407
 30
0.0
 11
12.4946143769
 21
5.8412152073
 31
0.0
  0
LINE
  5
A5
330
1F
100
AcDbEntity
  8
0
  6
SLD-SOLID
 62
     7
100
AcDbLine
 10
12.3536141924
 20
5.8412152073
 30
0.0
 11
12.3291143954
 21
5.8270701407
 31
0.0
  0
LINE
  5
A6
330
1F
100
AcDbEntity
  8
0
  6
SLD-SOLID
 62
     7
100
AcDbLine
 10
12.5191144672
 20
5.3826256833
 30
0.0
 11
12.4946143769
 21
5.3967707682
 31
0.0
  0
LINE
  5
A7
330
1F
100
AcDbEntity
  8
0
  6
SLD-SOLID
 62
     7
100
AcDbLine
 10
12.3536141924
 20
5.3967707682
 30
0.0
 11
12.3291143954
 21
5.3826256833
 31
0.0
  0
LINE
  5
A8
330
1F
100
AcDbEntity
  8
0
  6
SLD-SOLID
 62
     7
100
AcDbLine
 10
12.3291143954
 20
5.3826256833
 30
0.0
 11
12.3536141924
 21
5.3684806075
 31
0.0
  0
LINE
  5
A9
330
1F
100
AcDbEntity
  8
0
  6
SLD-SOLID
 62
     7
100
AcDbLine
 10
12.4946143769
 20
5.3684806075
 30
0.0
 11
12.5191144672
 21
5.3826256833
 31
0.0
  0
LINE
  5
AA
330
1F
100
AcDbEntity
  8
0
  6
SLD-SOLID
 62
     7
100
AcDbLine
 10
12.3291143954
 20
4.9381812259
 30
0.0
 11
12.3536141924
 21
4.9240361593
 31
0.0
  0
LINE
  5
AB
330
1F
100
AcDbEntity
  8
0
  6
SLD-SOLID
 62
     7
100
AcDbLine
 10
12.4946143769
 20
4.9240361593
 30
0.0
 11
12.5191144672
 21
4.9381812259
 31
0.0
  0
LINE
  5
AC
330
1F
100
AcDbEntity
  8
0
  6
SLD-SOLID
 62
     7
100
AcDbLine
 10
12.5191144672
 20
5.7715145858
 30
0.0
 11
12.4946143769
 21
5.7856596524
 31
0.0
  0
LINE
  5
AD
330
1F
100
AcDbEntity
  8
0
  6
SLD-SOLID
 62
     7
100
AcDbLine
 10
12.3536141924
 20
5.7856596524
 30
0.0
 11
12.3291143954
 21
5.7715145858
 31
0.0
  0
LINE
  5
AE
330
1F
100
AcDbEntity
  8
0
  6
SLD-SOLID
 62
     7
100
AcDbLine
 10
12.5191144672
 20
5.1604034637
 30
0.0
 11
12.4946143769
 21
5.1745485486
 31
0.0
  0
LINE
  5
AF
330
1F
100
AcDbEntity
  8
0
  6
SLD-SOLID
 62
     7
100
AcDbLine
 10
12.3536141924
 20
5.1745485486
 30
0.0
 11
12.3291143954
 21
5.1604034637
 31
0.0
  0
LINE
  5
B0
330
1F
100
AcDbEntity
  8
0
  6
SLD-SOLID
 62
     7
100
AcDbLine
 10
12.5191144672
 20
5.2159590186
 30
0.0
 11
12.4946143769
 21
5.230104099
 31
0.0
  0
LINE
  5
B1
330
1F
100
AcDbEntity
  8
0
  6
SLD-SOLID
 62
     7
100
AcDbLine
 10
12.3536141924
 20
5.230104099
 30
0.0
 11
12.3291143954
 21
5.2159590186
 31
0.0
  0
LINE
  5
B2
330
1F
100
AcDbEntity
  8
0
  6
SLD-SOLID
 62
     7
100
AcDbLine
 10
12.3291143954
 20
5.2715145752
 30
0.0
 11
12.3536141924
 21
5.2573694931
 31
0.0
  0
LINE
  5
B3
330
1F
100
AcDbEntity
  8
0
  6
SLD-SOLID
 62
     7
100
AcDbLine
 10
12.4946143769
 20
5.2573694931
 30
0.0
 11
12.5191144672
 21
5.2715145752
 31
0.0
  0
LINE
  5
B4
330
1F
100
AcDbEntity
  8
0
  6
SLD-SOLID
 62
     7
100
AcDbLine
 10
12.5191144672
 20
5.2715145752
 30
0.0
 11
12.4946143769
 21
5.2856596567
 31
0.0
  0
LINE
  5
B5
330
1F
100
AcDbEntity
  8
0
  6
SLD-SOLID
 62
     7
100
AcDbLine
 10
12.3536141924
 20
5.2856596567
 30
0.0
 11
12.3291143954
 21
5.2715145752
 31
0.0
  0
LINE
  5
B6
330
1F
100
AcDbEntity
  8
0
  6
SLD-SOLID
 62
     7
100
AcDbLine
 10
12.5191144672
 20
5.6048479211
 30
0.0
 11
12.4946143769
 21
5.6189929877
 31
0.0
  0
LINE
  5
B7
330
1F
100
AcDbEntity
  8
0
  6
SLD-SOLID
 62
     7
100
AcDbLine
 10
12.3536141924
 20
5.6189929877
 30
0.0
 11
12.3291143954
 21
5.6048479211
 31
0.0
  0
LINE
  5
B8
330
1F
100
AcDbEntity
  8
0
  6
SLD-SOLID
 62
     7
100
AcDbLine
 10
12.5191144672
 20
4.9381812259
 30
0.0
 11
12.4946143769
 21
4.9523263291
 31
0.0
  0
LINE
  5
B9
330
1F
100
AcDbEntity
  8
0
  6
SLD-SOLID
 62
     7
100
AcDbLine
 10
12.3536141924
 20
4.9523263291
 30
0.0
 11
12.3291143954
 21
4.9381812259
 31
0.0
  0
LINE
  5
BA
330
1F
100
AcDbEntity
  8
0
  6
SLD-SOLID
 62
     7
100
AcDbLine
 10
12.5191144672
 20
5.1048479088
 30
0.0
 11
12.4946143769
 21
5.1189929938
 31
0.0
  0
LINE
  5
BB
330
1F
100
AcDbEntity
  8
0
  6
SLD-SOLID
 62
     7
100
AcDbLine
 10
12.3536141924
 20
5.1189929938
 30
0.0
 11
12.3291143954
 21
5.1048479088
 31
0.0
  0
LINE
  5
BC
330
1F
100
AcDbEntity
  8
0
  6
SLD-SOLID
 62
     7
100
AcDbLine
 10
12.5191144672
 20
5.660403476
 30
0.0
 11
12.4946143769
 21
5.6745485426
 31
0.0
  0
LINE
  5
BD
330
1F
100
AcDbEntity
  8
0
  6
SLD-SOLID
 62
     7
100
AcDbLine
 10
12.3536141924
 20
5.6745485426
 30
0.0
 11
12.3291143954
 21
5.660403476
 31
0.0
  0
LINE
  5
BE
330
1F
100
AcDbEntity
  8
0
  6
SLD-SOLID
 62
     7
100
AcDbLine
 10
12.5191144672
 20
4.7715145612
 30
0.0
 11
12.5054021723
 21
4.7794312431
 31
0.0
  0
LINE
  5
BF
330
1F
100
AcDbEntity
  8
0
  6
SLD-SOLID
 62
     7
100
AcDbLine
 10
12.342826397
 20
4.7794312431
 30
0.0
 11
12.3291143954
 21
4.7715145612
 31
0.0
  0
LINE
  5
C0
330
1F
100
AcDbEntity
  8
0
  6
SLD-SOLID
 62
     7
100
AcDbLine
 10
12.3291143954
 20
4.7715145612
 30
0.0
 11
12.3536141924
 21
4.7573694946
 31
0.0
  0
LINE
  5
C1
330
1F
100
AcDbEntity
  8
0
  6
SLD-SOLID
 62
     7
100
AcDbLine
 10
12.4946143769
 20
4.7573694946
 30
0.0
 11
12.5191144672
 21
4.7715145612
 31
0.0
  0
LINE
  5
C2
330
1F
100
AcDbEntity
  8
0
  6
SLD-SOLID
 62
     7
100
AcDbLine
 10
12.5191144672
 20
4.6048479332
 30
0.0
 11
12.4946143769
 21
4.6189929631
 31
0.0
  0
LINE
  5
C3
330
1F
100
AcDbEntity
  8
0
  6
SLD-SOLID
 62
     7
100
AcDbLine
 10
12.3536141924
 20
4.6189929631
 30
0.0
 11
12.3291143954
 21
4.6048479332
 31
0.0
  0
LINE
  5
C4
330
1F
100
AcDbEntity
  8
0
  6
SLD-SOLID
 62
     7
100
AcDbLine
 10
12.4950581851
 20
4.5631812212
 30
0.0
 11
12.4946143769
 21
4.5634374449
 31
0.0
  0
LINE
  5
C5
330
1F
100
AcDbEntity
  8
0
  6
SLD-SOLID
 62
     7
100
AcDbLine
 10
12.3536141924
 20
4.5634374449
 30
0.0
 11
12.3531706775
 21
4.5631812212
 31
0.0
  0
LINE
  5
C6
330
1F
100
AcDbEntity
  8
0
  6
SLD-SOLID
 62
     7
100
AcDbLine
 10
12.5191144672
 20
4.6604034514
 30
0.0
 11
12.4946143769
 21
4.6745485547
 31
0.0
  0
LINE
  5
C7
330
1F
100
AcDbEntity
  8
0
  6
SLD-SOLID
 62
     7
100
AcDbLine
 10
12.3536141924
 20
4.6745485547
 30
0.0
 11
12.3291143954
 21
4.6604034514
 31
0.0
  0
LINE
  5
C8
330
1F
100
AcDbEntity
  8
0
  6
SLD-SOLID
 62
     7
100
AcDbLine
 10
12.3291143954
 20
4.6604034514
 30
0.0
 11
12.3536141924
 21
4.6462583482
 31
0.0
  0
LINE
  5
C9
330
1F
100
AcDbEntity
  8
0
  6
SLD-SOLID
 62
     7
100
AcDbLine
 10
12.4946143769
 20
4.6462583482
 30
0.0
 11
12.5191144672
 21
4.6604034514
 31
0.0
  0
LINE
  5
CA
330
1F
100
AcDbEntity
  8
0
  6
SLD-SOLID
 62
     7
100
AcDbLine
 10
12.3291143954
 20
4.6048479332
 30
0.0
 11
12.3536141924
 21
4.59070283
 31
0.0
  0
LINE
  5
CB
330
1F
100
AcDbEntity
  8
0
  6
SLD-SOLID
 62
     7
100
AcDbLine
 10
12.4946143769
 20
4.59070283
 30
0.0
 11
12.5191144672
 21
4.6048479332
 31
0.0
  0
LINE
  5
CC
330
1F
100
AcDbEntity
  8
0
  6
SLD-SOLID
 62
     7
100
AcDbLine
 10
12.3291143954
 20
4.7159590063
 30
0.0
 11
12.3536141924
 21
4.7018139397
 31
0.0
  0
LINE
  5
CD
330
1F
100
AcDbEntity
  8
0
  6
SLD-SOLID
 62
     7
100
AcDbLine
 10
12.4946143769
 20
4.7018139397
 30
0.0
 11
12.5191144672
 21
4.7159590063
 31
0.0
  0
LINE
  5
CE
330
1F
100
AcDbEntity
  8
0
  6
SLD-SOLID
 62
     7
100
AcDbLine
 10
12.5191144672
 20
4.7159590063
 30
0.0
 11
12.4946143769
 21
4.7301041096
 31
0.0
  0
LINE
  5
CF
330
1F
100
AcDbEntity
  8
0
  6
SLD-SOLID
 62
     7
100
AcDbLine
 10
12.3536141924
 20
4.7301041096
 30
0.0
 11
12.3291143954
 21
4.7159590063
 31
0.0
  0
LINE
  5
D0
330
1F
100
AcDbEntity
  8
0
  6
SLD-SOLID
 62
     7
100
AcDbLine
 10
12.4946143769
 20
6.7679792512
 30
0.0
 11
12.4241142846
 21
6.9381813117
 31
0.0
  0
LINE
  5
D1
330
1F
100
AcDbEntity
  8
0
  6
SLD-SOLID
 62
     7
100
AcDbLine
 10
12.4241142846
 20
6.9381813117
 30
0.0
 11
12.3536141924
 21
6.7679792512
 31
0.0
  0
LINE
  5
D2
330
1F
100
AcDbEntity
  8
0
  6
SLD-SOLID
 62
     7
100
AcDbLine
 10
12.4946143769
 20
6.7301040487
 30
0.0
 11
12.4946143769
 21
6.7679792512
 31
0.0
  0
LINE
  5
D3
330
1F
100
AcDbEntity
  8
0
  6
SLD-SOLID
 62
     7
100
AcDbLine
 10
12.3536141924
 20
6.7679792512
 30
0.0
 11
12.3536141924
 21
6.7301040487
 31
0.0
  0
LINE
  5
D4
330
1F
100
AcDbEntity
  8
0
  6
SLD-SOLID
 62
     7
100
AcDbLine
 10
12.4946143769
 20
6.6189930123
 30
0.0
 11
12.4946143769
 21
6.646258324
 31
0.0
  0
LINE
  5
D5
330
1F
100
AcDbEntity
  8
0
  6
SLD-SOLID
 62
     7
100
AcDbLine
 10
12.3536141924
 20
6.646258324
 30
0.0
 11
12.3536141924
 21
6.6189930123
 31
0.0
  0
LINE
  5
D6
330
1F
100
AcDbEntity
  8
0
  6
SLD-SOLID
 62
     7
100
AcDbLine
 10
12.4946143769
 20
6.6745485305
 30
0.0
 11
12.4946143769
 21
6.7018139889
 31
0.0
  0
LINE
  5
D7
330
1F
100
AcDbEntity
  8
0
  6
SLD-SOLID
 62
     7
100
AcDbLine
 10
12.3536141924
 20
6.7018139889
 30
0.0
 11
12.3536141924
 21
6.6745485305
 31
0.0
  0
LINE
  5
D8
330
1F
100
AcDbEntity
  8
0
  6
SLD-SOLID
 62
     7
100
AcDbLine
 10
12.4946143769
 20
6.452326311
 30
0.0
 11
12.4946143769
 21
6.479591696
 31
0.0
  0
LINE
  5
D9
330
1F
100
AcDbEntity
  8
0
  6
SLD-SOLID
 62
     7
100
AcDbLine
 10
12.3536141924
 20
6.479591696
 30
0.0
 11
12.3536141924
 21
6.452326311
 31
0.0
  0
LINE
  5
DA
330
1F
100
AcDbEntity
  8
0
  6
SLD-SOLID
 62
     7
100
AcDbLine
 10
12.4946143769
 20
6.5634374941
 30
0.0
 11
12.4946143769
 21
6.5907028058
 31
0.0
  0
LINE
  5
DB
330
1F
100
AcDbEntity
  8
0
  6
SLD-SOLID
 62
     7
100
AcDbLine
 10
12.3536141924
 20
6.5907028058
 30
0.0
 11
12.3536141924
 21
6.5634374941
 31
0.0
  0
LINE
  5
DC
330
1F
100
AcDbEntity
  8
0
  6
SLD-SOLID
 62
     7
100
AcDbLine
 10
12.4946143769
 20
6.5078818292
 30
0.0
 11
12.4946143769
 21
6.5351472876
 31
0.0
  0
LINE
  5
DD
330
1F
100
AcDbEntity
  8
0
  6
SLD-SOLID
 62
     7
100
AcDbLine
 10
12.3536141924
 20
6.5351472876
 30
0.0
 11
12.3536141924
 21
6.5078818292
 31
0.0
  0
LINE
  5
DE
330
1F
100
AcDbEntity
  8
0
  6
SLD-SOLID
 62
     7
100
AcDbLine
 10
12.4946143769
 20
6.285659683
 30
0.0
 11
12.4946143769
 21
6.312925068
 31
0.0
  0
LINE
  5
DF
330
1F
100
AcDbEntity
  8
0
  6
SLD-SOLID
 62
     7
100
AcDbLine
 10
12.3536141924
 20
6.312925068
 30
0.0
 11
12.3536141924
 21
6.285659683
 31
0.0
  0
LINE
  5
E0
330
1F
100
AcDbEntity
  8
0
  6
SLD-SOLID
 62
     7
100
AcDbLine
 10
12.4946143769
 20
6.3967707928
 30
0.0
 11
12.4946143769
 21
6.4240361778
 31
0.0
  0
LINE
  5
E1
330
1F
100
AcDbEntity
  8
0
  6
SLD-SOLID
 62
     7
100
AcDbLine
 10
12.3536141924
 20
6.4240361778
 30
0.0
 11
12.3536141924
 21
6.3967707928
 31
0.0
  0
LINE
  5
E2
330
1F
100
AcDbEntity
  8
0
  6
SLD-SOLID
 62
     7
100
AcDbLine
 10
12.4946143769
 20
6.3412152012
 30
0.0
 11
12.4946143769
 21
6.3684805862
 31
0.0
  0
LINE
  5
E3
330
1F
100
AcDbEntity
  8
0
  6
SLD-SOLID
 62
     7
100
AcDbLine
 10
12.3536141924
 20
6.3684805862
 30
0.0
 11
12.3536141924
 21
6.3412152012
 31
0.0
  0
LINE
  5
E4
330
1F
100
AcDbEntity
  8
0
  6
SLD-SOLID
 62
     7
100
AcDbLine
 10
12.4946143769
 20
6.2466223806
 30
0.0
 11
12.4946143769
 21
6.2573694765
 31
0.0
  0
LINE
  5
E5
330
1F
100
AcDbEntity
  8
0
  6
SLD-SOLID
 62
     7
100
AcDbLine
 10
12.3536141924
 20
6.2573694765
 30
0.0
 11
12.3536141924
 21
6.2466223806
 31
0.0
  0
LINE
  5
E6
330
1F
100
AcDbEntity
  8
0
  6
SLD-SOLID
 62
     7
100
AcDbLine
 10
12.4946143769
 20
5.7856596524
 30
0.0
 11
12.4946143769
 21
5.8129250374
 31
0.0
  0
LINE
  5
E7
330
1F
100
AcDbEntity
  8
0
  6
SLD-SOLID
 62
     7
100
AcDbLine
 10
12.3536141924
 20
5.8129250374
 30
0.0
 11
12.3536141924
 21
5.7856596524
 31
0.0
  0
LINE
  5
E8
330
1F
100
AcDbEntity
  8
0
  6
SLD-SOLID
 62
     7
100
AcDbLine
 10
12.4946143769
 20
5.2856596567
 30
0.0
 11
12.4946143769
 21
5.312925048
 31
0.0
  0
LINE
  5
E9
330
1F
100
AcDbEntity
  8
0
  6
SLD-SOLID
 62
     7
100
AcDbLine
 10
12.3536141924
 20
5.312925048
 30
0.0
 11
12.3536141924
 21
5.2856596567
 31
0.0
  0
LINE
  5
EA
330
1F
100
AcDbEntity
  8
0
  6
SLD-SOLID
 62
     7
100
AcDbLine
 10
12.4946143769
 20
5.7301040975
 30
0.0
 11
12.4946143769
 21
5.7573694825
 31
0.0
  0
LINE
  5
EB
330
1F
100
AcDbEntity
  8
0
  6
SLD-SOLID
 62
     7
100
AcDbLine
 10
12.3536141924
 20
5.7573694825
 30
0.0
 11
12.3536141924
 21
5.7301040975
 31
0.0
  0
LINE
  5
EC
330
1F
100
AcDbEntity
  8
0
  6
SLD-SOLID
 62
     7
100
AcDbLine
 10
12.4946143769
 20
5.9523263537
 30
0.0
 11
12.4946143769
 21
5.9744312583
 31
0.0
  0
LINE
  5
ED
330
1F
100
AcDbEntity
  8
0
  6
SLD-SOLID
 62
     7
100
AcDbLine
 10
12.3536141924
 20
5.9744312583
 30
0.0
 11
12.3536141924
 21
5.9523263537
 31
0.0
  0
LINE
  5
EE
330
1F
100
AcDbEntity
  8
0
  6
SLD-SOLID
 62
     7
100
AcDbLine
 10
12.4946143769
 20
5.3967707682
 30
0.0
 11
12.4946143769
 21
5.4240361624
 31
0.0
  0
LINE
  5
EF
330
1F
100
AcDbEntity
  8
0
  6
SLD-SOLID
 62
     7
100
AcDbLine
 10
12.3536141924
 20
5.4240361624
 30
0.0
 11
12.3536141924
 21
5.3967707682
 31
0.0
  0
LINE
  5
F0
330
1F
100
AcDbEntity
  8
0
  6
SLD-SOLID
 62
     7
100
AcDbLine
 10
12.4946143769
 20
5.8967707621
 30
0.0
 11
12.4946143769
 21
5.9240361472
 31
0.0
  0
LINE
  5
F1
330
1F
100
AcDbEntity
  8
0
  6
SLD-SOLID
 62
     7
100
AcDbLine
 10
12.3536141924
 20
5.9240361472
 30
0.0
 11
12.3536141924
 21
5.8967707621
 31
0.0
  0
LINE
  5
F2
330
1F
100
AcDbEntity
  8
0
  6
SLD-SOLID
 62
     7
100
AcDbLine
 10
12.4946143769
 20
5.3412152133
 30
0.0
 11
12.4946143769
 21
5.3684806075
 31
0.0
  0
LINE
  5
F3
330
1F
100
AcDbEntity
  8
0
  6
SLD-SOLID
 62
     7
100
AcDbLine
 10
12.3536141924
 20
5.3684806075
 30
0.0
 11
12.3536141924
 21
5.3412152133
 31
0.0
  0
LINE
  5
F4
330
1F
100
AcDbEntity
  8
0
  6
SLD-SOLID
 62
     7
100
AcDbLine
 10
12.4946143769
 20
5.507881878
 30
0.0
 11
12.4946143769
 21
5.535147263
 31
0.0
  0
LINE
  5
F5
330
1F
100
AcDbEntity
  8
0
  6
SLD-SOLID
 62
     7
100
AcDbLine
 10
12.3536141924
 20
5.535147263
 30
0.0
 11
12.3536141924
 21
5.507881878
 31
0.0
  0
LINE
  5
F6
330
1F
100
AcDbEntity
  8
0
  6
SLD-SOLID
 62
     7
100
AcDbLine
 10
12.4946143769
 20
5.6745485426
 30
0.0
 11
12.4946143769
 21
5.7018139276
 31
0.0
  0
LINE
  5
F7
330
1F
100
AcDbEntity
  8
0
  6
SLD-SOLID
 62
     7
100
AcDbLine
 10
12.3536141924
 20
5.7018139276
 30
0.0
 11
12.3536141924
 21
5.6745485426
 31
0.0
  0
LINE
  5
F8
330
1F
100
AcDbEntity
  8
0
  6
SLD-SOLID
 62
     7
100
AcDbLine
 10
12.4946143769
 20
5.8412152073
 30
0.0
 11
12.4946143769
 21
5.8684805923
 31
0.0
  0
LINE
  5
F9
330
1F
100
AcDbEntity
  8
0
  6
SLD-SOLID
 62
     7
100
AcDbLine
 10
12.3536141924
 20
5.8684805923
 30
0.0
 11
12.3536141924
 21
5.8412152073
 31
0.0
  0
LINE
  5
FA
330
1F
100
AcDbEntity
  8
0
  6
SLD-SOLID
 62
     7
100
AcDbLine
 10
12.4946143769
 20
5.6189929877
 30
0.0
 11
12.4946143769
 21
5.6462583728
 31
0.0
  0
LINE
  5
FB
330
1F
100
AcDbEntity
  8
0
  6
SLD-SOLID
 62
     7
100
AcDbLine
 10
12.3536141924
 20
5.6462583728
 30
0.0
 11
12.3536141924
 21
5.6189929877
 31
0.0
  0
LINE
  5
FC
330
1F
100
AcDbEntity
  8
0
  6
SLD-SOLID
 62
     7
100
AcDbLine
 10
12.4946143769
 20
5.5634374328
 30
0.0
 11
12.4946143769
 21
5.5907028179
 31
0.0
  0
LINE
  5
FD
330
1F
100
AcDbEntity
  8
0
  6
SLD-SOLID
 62
     7
100
AcDbLine
 10
12.3536141924
 20
5.5907028179
 30
0.0
 11
12.3536141924
 21
5.5634374328
 31
0.0
  0
LINE
  5
FE
330
1F
100
AcDbEntity
  8
0
  6
SLD-SOLID
 62
     7
100
AcDbLine
 10
12.4946143769
 20
5.4523263231
 30
0.0
 11
12.4946143769
 21
5.4795917081
 31
0.0
  0
LINE
  5
FF
330
1F
100
AcDbEntity
  8
0
  6
SLD-SOLID
 62
     7
100
AcDbLine
 10
12.3536141924
 20
5.4795917081
 30
0.0
 11
12.3536141924
 21
5.4523263231
 31
0.0
  0
LINE
  5
100
330
1F
100
AcDbEntity
  8
0
  6
SLD-SOLID
 62
     7
100
AcDbLine
 10
12.4946143769
 20
5.230104099
 30
0.0
 11
12.4946143769
 21
5.2573694931
 31
0.0
  0
LINE
  5
101
330
1F
100
AcDbEntity
  8
0
  6
SLD-SOLID
 62
     7
100
AcDbLine
 10
12.3536141924
 20
5.2573694931
 30
0.0
 11
12.3536141924
 21
5.230104099
 31
0.0
  0
LINE
  5
102
330
1F
100
AcDbEntity
  8
0
  6
SLD-SOLID
 62
     7
100
AcDbLine
 10
12.4946143769
 20
5.1745485486
 30
0.0
 11
12.4946143769
 21
5.2018139383
 31
0.0
  0
LINE
  5
103
330
1F
100
AcDbEntity
  8
0
  6
SLD-SOLID
 62
     7
100
AcDbLine
 10
12.3536141924
 20
5.2018139383
 30
0.0
 11
12.3536141924
 21
5.1745485486
 31
0.0
  0
LINE
  5
104
330
1F
100
AcDbEntity
  8
0
  6
SLD-SOLID
 62
     7
100
AcDbLine
 10
12.4946143769
 20
4.9523263291
 30
0.0
 11
12.4946143769
 21
4.9795917141
 31
0.0
  0
LINE
  5
105
330
1F
100
AcDbEntity
  8
0
  6
SLD-SOLID
 62
     7
100
AcDbLine
 10
12.3536141924
 20
4.9795917141
 30
0.0
 11
12.3536141924
 21
4.9523263291
 31
0.0
  0
LINE
  5
106
330
1F
100
AcDbEntity
  8
0
  6
SLD-SOLID
 62
     7
100
AcDbLine
 10
12.4946143769
 20
5.1189929938
 30
0.0
 11
12.4946143769
 21
5.1462583788
 31
0.0
  0
LINE
  5
107
330
1F
100
AcDbEntity
  8
0
  6
SLD-SOLID
 62
     7
100
AcDbLine
 10
12.3536141924
 20
5.1462583788
 30
0.0
 11
12.3536141924
 21
5.1189929938
 31
0.0
  0
LINE
  5
108
330
1F
100
AcDbEntity
  8
0
  6
SLD-SOLID
 62
     7
100
AcDbLine
 10
12.4946143769
 20
5.007881884
 30
0.0
 11
12.4946143769
 21
5.035147269
 31
0.0
  0
LINE
  5
109
330
1F
100
AcDbEntity
  8
0
  6
SLD-SOLID
 62
     7
100
AcDbLine
 10
12.3536141924
 20
5.035147269
 30
0.0
 11
12.3536141924
 21
5.007881884
 31
0.0
  0
LINE
  5
10A
330
1F
100
AcDbEntity
  8
0
  6
SLD-SOLID
 62
     7
100
AcDbLine
 10
12.4946143769
 20
4.9044312324
 30
0.0
 11
12.4946143769
 21
4.9240361593
 31
0.0
  0
LINE
  5
10B
330
1F
100
AcDbEntity
  8
0
  6
SLD-SOLID
 62
     7
100
AcDbLine
 10
12.3536141924
 20
4.9240361593
 30
0.0
 11
12.3536141924
 21
4.9044312324
 31
0.0
  0
LINE
  5
10C
330
1F
100
AcDbEntity
  8
0
  6
SLD-SOLID
 62
     7
100
AcDbLine
 10
12.4946143769
 20
5.0634374389
 30
0.0
 11
12.4946143769
 21
5.0907028239
 31
0.0
  0
LINE
  5
10D
330
1F
100
AcDbEntity
  8
0
  6
SLD-SOLID
 62
     7
100
AcDbLine
 10
12.3536141924
 20
5.0907028239
 30
0.0
 11
12.3536141924
 21
5.0634374389
 31
0.0
  0
LINE
  5
10E
330
1F
100
AcDbEntity
  8
0
  6
SLD-SOLID
 62
     7
100
AcDbLine
 10
12.4946143769
 20
4.7301041096
 30
0.0
 11
12.4946143769
 21
4.7573694946
 31
0.0
  0
LINE
  5
10F
330
1F
100
AcDbEntity
  8
0
  6
SLD-SOLID
 62
     7
100
AcDbLine
 10
12.3536141924
 20
4.7573694946
 30
0.0
 11
12.3536141924
 21
4.7301041096
 31
0.0
  0
LINE
  5
110
330
1F
100
AcDbEntity
  8
0
  6
SLD-SOLID
 62
     7
100
AcDbLine
 10
12.4946143769
 20
4.6189929631
 30
0.0
 11
12.4946143769
 21
4.6462583482
 31
0.0
  0
LINE
  5
111
330
1F
100
AcDbEntity
  8
0
  6
SLD-SOLID
 62
     7
100
AcDbLine
 10
12.3536141924
 20
4.6462583482
 30
0.0
 11
12.3536141924
 21
4.6189929631
 31
0.0
  0
LINE
  5
112
330
1F
100
AcDbEntity
  8
0
  6
SLD-SOLID
 62
     7
100
AcDbLine
 10
12.4946143769
 20
4.5634374449
 30
0.0
 11
12.4946143769
 21
4.59070283
 31
0.0
  0
LINE
  5
113
330
1F
100
AcDbEntity
  8
0
  6
SLD-SOLID
 62
     7
100
AcDbLine
 10
12.3536141924
 20
4.59070283
 30
0.0
 11
12.3536141924
 21
4.5634374449
 31
0.0
  0
LINE
  5
114
330
1F
100
AcDbEntity
  8
0
  6
SLD-SOLID
 62
     7
100
AcDbLine
 10
12.4946143769
 20
4.6745485547
 30
0.0
 11
12.4946143769
 21
4.7018139397
 31
0.0
  0
LINE
  5
115
330
1F
100
AcDbEntity
  8
0
  6
SLD-SOLID
 62
     7
100
AcDbLine
 10
12.3536141924
 20
4.7018139397
 30
0.0
 11
12.3536141924
 21
4.6745485547
 31
0.0
  0
ARC
  5
116
330
1F
100
AcDbEntity
  8
0
  6
SLD-SOLID
 62
     7
100
AcDbCircle
 10
5.8236143277
 20
4.3899148767
 30
0.0
 40
0.0200000000000005
100
AcDbArc
 50
180.0
 51
241.8571552447
  0
ARC
  5
117
330
1F
100
AcDbEntity
  8
0
  6
SLD-SOLID
 62
     7
100
AcDbCircle
 10
6.1566143277
 20
4.3899148767
 30
0.0
 40
0.0199999999999996
100
AcDbArc
 50
298.1428447553
 51
0.0
  0
LINE
  5
118
330
1F
100
AcDbEntity
  8
0
  6
SLD-SOLID
 62
     7
100
AcDbLine
 10
5.8036143119
 20
4.4381812319
 30
0.0
 11
5.8036143119
 21
4.3899148895
 31
0.0
  0
LINE
  5
119
330
1F
100
AcDbEntity
  8
0
  6
SLD-SOLID
 62
     7
100
AcDbLine
 10
6.1766144296
 20
4.3899148895
 30
0.0
 11
6.1766144296
 21
4.4381812319
 31
0.0
  0
ARC
  5
11A
330
1F
100
AcDbEntity
  8
0
  6
SLD-SOLID
 62
     7
100
AcDbCircle
 10
5.9901143277
 20
4.7011812417
 30
0.0
 40
0.3729999999999997
100
AcDbArc
 50
277.6034084169
 51
298.1428447553
  0
ARC
  5
11B
330
1F
100
AcDbEntity
  8
0
  6
SLD-SOLID
 62
     7
100
AcDbCircle
 10
5.9901143277
 20
4.7011812417
 30
0.0
 40
0.3730000000000006
100
AcDbArc
 50
241.8571552447
 51
262.3965915831
  0
LINE
  5
11C
330
1F
100
AcDbEntity
  8
0
  6
SLD-SOLID
 62
     7
100
AcDbLine
 10
6.08511426
 20
6.2715145797
 30
0.0
 11
6.060614463
 21
6.285659683
 31
0.0
  0
LINE
  5
11D
330
1F
100
AcDbEntity
  8
0
  6
SLD-SOLID
 62
     7
100
AcDbLine
 10
5.9196142785
 20
6.285659683
 30
0.0
 11
5.8951141882
 21
6.2715145797
 31
0.0
  0
LINE
  5
11E
330
1F
100
AcDbEntity
  8
0
  6
SLD-SOLID
 62
     7
100
AcDbLine
 10
5.8951141882
 20
6.6604034273
 30
0.0
 11
5.9196142785
 21
6.646258324
 31
0.0
  0
LINE
  5
11F
330
1F
100
AcDbEntity
  8
0
  6
SLD-SOLID
 62
     7
100
AcDbLine
 10
6.060614463
 20
6.646258324
 30
0.0
 11
6.08511426
 21
6.6604034273
 31
0.0
  0
LINE
  5
120
330
1F
100
AcDbEntity
  8
0
  6
SLD-SOLID
 62
     7
100
AcDbLine
 10
5.8951141882
 20
6.3826256895
 30
0.0
 11
5.9196142785
 21
6.3684805862
 31
0.0
  0
LINE
  5
121
330
1F
100
AcDbEntity
  8
0
  6
SLD-SOLID
 62
     7
100
AcDbLine
 10
6.060614463
 20
6.3684805862
 30
0.0
 11
6.08511426
 21
6.3826256895
 31
0.0
  0
LINE
  5
122
330
1F
100
AcDbEntity
  8
0
  6
SLD-SOLID
 62
     7
100
AcDbLine
 10
6.08511426
 20
6.604847909
 30
0.0
 11
6.060614463
 21
6.6189930123
 31
0.0
  0
LINE
  5
123
330
1F
100
AcDbEntity
  8
0
  6
SLD-SOLID
 62
     7
100
AcDbLine
 10
5.9196142785
 20
6.6189930123
 30
0.0
 11
5.8951141882
 21
6.604847909
 31
0.0
  0
LINE
  5
124
330
1F
100
AcDbEntity
  8
0
  6
SLD-SOLID
 62
     7
100
AcDbLine
 10
5.8951141882
 20
6.2715145797
 30
0.0
 11
5.9196142785
 21
6.2573694765
 31
0.0
  0
LINE
  5
125
330
1F
100
AcDbEntity
  8
0
  6
SLD-SOLID
 62
     7
100
AcDbLine
 10
6.060614463
 20
6.2573694765
 30
0.0
 11
6.08511426
 21
6.2715145797
 31
0.0
  0
LINE
  5
126
330
1F
100
AcDbEntity
  8
0
  6
SLD-SOLID
 62
     7
100
AcDbLine
 10
5.8951141882
 20
6.7159590921
 30
0.0
 11
5.9196142785
 21
6.7018139889
 31
0.0
  0
LINE
  5
127
330
1F
100
AcDbEntity
  8
0
  6
SLD-SOLID
 62
     7
100
AcDbLine
 10
6.060614463
 20
6.7018139889
 30
0.0
 11
6.08511426
 21
6.7159590921
 31
0.0
  0
LINE
  5
128
330
1F
100
AcDbEntity
  8
0
  6
SLD-SOLID
 62
     7
100
AcDbLine
 10
6.08511426
 20
6.327070098
 30
0.0
 11
6.060614463
 21
6.3412152012
 31
0.0
  0
LINE
  5
129
330
1F
100
AcDbEntity
  8
0
  6
SLD-SOLID
 62
     7
100
AcDbLine
 10
5.9196142785
 20
6.3412152012
 30
0.0
 11
5.8951141882
 21
6.327070098
 31
0.0
  0
LINE
  5
12A
330
1F
100
AcDbEntity
  8
0
  6
SLD-SOLID
 62
     7
100
AcDbLine
 10
5.8951141882
 20
6.327070098
 30
0.0
 11
5.9196142785
 21
6.312925068
 31
0.0
  0
LINE
  5
12B
330
1F
100
AcDbEntity
  8
0
  6
SLD-SOLID
 62
     7
100
AcDbLine
 10
6.060614463
 20
6.312925068
 30
0.0
 11
6.08511426
 21
6.327070098
 31
0.0
  0
LINE
  5
12C
330
1F
100
AcDbEntity
  8
0
  6
SLD-SOLID
 62
     7
100
AcDbLine
 10
5.8951141882
 20
6.4937367993
 30
0.0
 11
5.9196142785
 21
6.479591696
 31
0.0
  0
LINE
  5
12D
330
1F
100
AcDbEntity
  8
0
  6
SLD-SOLID
 62
     7
100
AcDbLine
 10
6.060614463
 20
6.479591696
 30
0.0
 11
6.08511426
 21
6.4937367993
 31
0.0
  0
LINE
  5
12E
330
1F
100
AcDbEntity
  8
0
  6
SLD-SOLID
 62
     7
100
AcDbLine
 10
6.08511426
 20
6.4937367993
 30
0.0
 11
6.060614463
 21
6.5078818292
 31
0.0
  0
LINE
  5
12F
330
1F
100
AcDbEntity
  8
0
  6
SLD-SOLID
 62
     7
100
AcDbLine
 10
5.9196142785
 20
6.5078818292
 30
0.0
 11
5.8951141882
 21
6.4937367993
 31
0.0
  0
LINE
  5
130
330
1F
100
AcDbEntity
  8
0
  6
SLD-SOLID
 62
     7
100
AcDbLine
 10
5.8951141882
 20
6.604847909
 30
0.0
 11
5.9196142785
 21
6.5907028058
 31
0.0
  0
LINE
  5
131
330
1F
100
AcDbEntity
  8
0
  6
SLD-SOLID
 62
     7
100
AcDbLine
 10
6.060614463
 20
6.5907028058
 30
0.0
 11
6.08511426
 21
6.604847909
 31
0.0
  0
LINE
  5
132
330
1F
100
AcDbEntity
  8
0
  6
SLD-SOLID
 62
     7
100
AcDbLine
 10
6.08511426
 20
6.6604034273
 30
0.0
 11
6.060614463
 21
6.6745485305
 31
0.0
  0
LINE
  5
133
330
1F
100
AcDbEntity
  8
0
  6
SLD-SOLID
 62
     7
100
AcDbLine
 10
5.9196142785
 20
6.6745485305
 30
0.0
 11
5.8951141882
 21
6.6604034273
 31
0.0
  0
LINE
  5
134
330
1F
100
AcDbEntity
  8
0
  6
SLD-SOLID
 62
     7
100
AcDbLine
 10
6.08511426
 20
6.7159590921
 30
0.0
 11
6.060614463
 21
6.7301040487
 31
0.0
  0
LINE
  5
135
330
1F
100
AcDbEntity
  8
0
  6
SLD-SOLID
 62
     7
100
AcDbLine
 10
5.9196142785
 20
6.7301040487
 30
0.0
 11
5.8951141882
 21
6.7159590921
 31
0.0
  0
LINE
  5
136
330
1F
100
AcDbEntity
  8
0
  6
SLD-SOLID
 62
     7
100
AcDbLine
 10
6.08511426
 20
6.5492923908
 30
0.0
 11
6.060614463
 21
6.5634374941
 31
0.0
  0
LINE
  5
137
330
1F
100
AcDbEntity
  8
0
  6
SLD-SOLID
 62
     7
100
AcDbLine
 10
5.9196142785
 20
6.5634374941
 30
0.0
 11
5.8951141882
 21
6.5492923908
 31
0.0
  0
LINE
  5
138
330
1F
100
AcDbEntity
  8
0
  6
SLD-SOLID
 62
     7
100
AcDbLine
 10
5.8951141882
 20
6.5492923908
 30
0.0
 11
5.9196142785
 21
6.5351472876
 31
0.0
  0
LINE
  5
139
330
1F
100
AcDbEntity
  8
0
  6
SLD-SOLID
 62
     7
100
AcDbLine
 10
6.060614463
 20
6.5351472876
 30
0.0
 11
6.08511426
 21
6.5492923908
 31
0.0
  0
LINE
  5
13A
330
1F
100
AcDbEntity
  8
0
  6
SLD-SOLID
 62
     7
100
AcDbLine
 10
6.08511426
 20
6.3826256895
 30
0.0
 11
6.060614463
 21
6.3967707928
 31
0.0
  0
LINE
  5
13B
330
1F
100
AcDbEntity
  8
0
  6
SLD-SOLID
 62
     7
100
AcDbLine
 10
5.9196142785
 20
6.3967707928
 30
0.0
 11
5.8951141882
 21
6.3826256895
 31
0.0
  0
LINE
  5
13C
330
1F
100
AcDbEntity
  8
0
  6
SLD-SOLID
 62
     7
100
AcDbLine
 10
5.8951141882
 20
6.4381812077
 30
0.0
 11
5.9196142785
 21
6.4240361778
 31
0.0
  0
LINE
  5
13D
330
1F
100
AcDbEntity
  8
0
  6
SLD-SOLID
 62
     7
100
AcDbLine
 10
6.060614463
 20
6.4240361778
 30
0.0
 11
6.08511426
 21
6.4381812077
 31
0.0
  0
LINE
  5
13E
330
1F
100
AcDbEntity
  8
0
  6
SLD-SOLID
 62
     7
100
AcDbLine
 10
6.08511426
 20
6.4381812077
 30
0.0
 11
6.060614463
 21
6.452326311
 31
0.0
  0
LINE
  5
13F
330
1F
100
AcDbEntity
  8
0
  6
SLD-SOLID
 62
     7
100
AcDbLine
 10
5.9196142785
 20
6.452326311
 30
0.0
 11
5.8951141882
 21
6.4381812077
 31
0.0
  0
LINE
  5
140
330
1F
100
AcDbEntity
  8
0
  6
SLD-SOLID
 62
     7
100
AcDbLine
 10
6.08511426
 20
5.1048479088
 30
0.0
 11
6.060614463
 21
5.1189929938
 31
0.0
  0
LINE
  5
141
330
1F
100
AcDbEntity
  8
0
  6
SLD-SOLID
 62
     7
100
AcDbLine
 10
5.9196142785
 20
5.1189929938
 30
0.0
 11
5.8951141882
 21
5.1048479088
 31
0.0
  0
LINE
  5
142
330
1F
100
AcDbEntity
  8
0
  6
SLD-SOLID
 62
     7
100
AcDbLine
 10
5.8951141882
 20
5.493736793
 30
0.0
 11
5.9196142785
 21
5.4795917081
 31
0.0
  0
LINE
  5
143
330
1F
100
AcDbEntity
  8
0
  6
SLD-SOLID
 62
     7
100
AcDbLine
 10
6.060614463
 20
5.4795917081
 30
0.0
 11
6.08511426
 21
5.493736793
 31
0.0
  0
LINE
  5
144
330
1F
100
AcDbEntity
  8
0
  6
SLD-SOLID
 62
     7
100
AcDbLine
 10
6.08511426
 20
5.493736793
 30
0.0
 11
6.060614463
 21
5.507881878
 31
0.0
  0
LINE
  5
145
330
1F
100
AcDbEntity
  8
0
  6
SLD-SOLID
 62
     7
100
AcDbLine
 10
5.9196142785
 20
5.507881878
 30
0.0
 11
5.8951141882
 21
5.493736793
 31
0.0
  0
LINE
  5
146
330
1F
100
AcDbEntity
  8
0
  6
SLD-SOLID
 62
     7
100
AcDbLine
 10
5.8951141882
 20
5.8826256955
 30
0.0
 11
5.9196142785
 21
5.8684805923
 31
0.0
  0
LINE
  5
147
330
1F
100
AcDbEntity
  8
0
  6
SLD-SOLID
 62
     7
100
AcDbLine
 10
6.060614463
 20
5.8684805923
 30
0.0
 11
6.08511426
 21
5.8826256955
 31
0.0
  0
LINE
  5
148
330
1F
100
AcDbEntity
  8
0
  6
SLD-SOLID
 62
     7
100
AcDbLine
 10
6.08511426
 20
5.7715145858
 30
0.0
 11
6.060614463
 21
5.7856596524
 31
0.0
  0
LINE
  5
149
330
1F
100
AcDbEntity
  8
0
  6
SLD-SOLID
 62
     7
100
AcDbLine
 10
5.9196142785
 20
5.7856596524
 30
0.0
 11
5.8951141882
 21
5.7715145858
 31
0.0
  0
LINE
  5
14A
330
1F
100
AcDbEntity
  8
0
  6
SLD-SOLID
 62
     7
100
AcDbLine
 10
6.08511426
 20
5.049292354
 30
0.0
 11
6.060614463
 21
5.0634374389
 31
0.0
  0
LINE
  5
14B
330
1F
100
AcDbEntity
  8
0
  6
SLD-SOLID
 62
     7
100
AcDbLine
 10
5.9196142785
 20
5.0634374389
 30
0.0
 11
5.8951141882
 21
5.049292354
 31
0.0
  0
LINE
  5
14C
330
1F
100
AcDbEntity
  8
0
  6
SLD-SOLID
 62
     7
100
AcDbLine
 10
6.08511426
 20
5.4381812381
 30
0.0
 11
6.060614463
 21
5.4523263231
 31
0.0
  0
LINE
  5
14D
330
1F
100
AcDbEntity
  8
0
  6
SLD-SOLID
 62
     7
100
AcDbLine
 10
5.9196142785
 20
5.4523263231
 30
0.0
 11
5.8951141882
 21
5.4381812381
 31
0.0
  0
LINE
  5
14E
330
1F
100
AcDbEntity
  8
0
  6
SLD-SOLID
 62
     7
100
AcDbLine
 10
5.8951141882
 20
5.8270701407
 30
0.0
 11
5.9196142785
 21
5.8129250374
 31
0.0
  0
LINE
  5
14F
330
1F
100
AcDbEntity
  8
0
  6
SLD-SOLID
 62
     7
100
AcDbLine
 10
6.060614463
 20
5.8129250374
 30
0.0
 11
6.08511426
 21
5.8270701407
 31
0.0
  0
LINE
  5
150
330
1F
100
AcDbEntity
  8
0
  6
SLD-SOLID
 62
     7
100
AcDbLine
 10
5.8951141882
 20
5.049292354
 30
0.0
 11
5.9196142785
 21
5.035147269
 31
0.0
  0
LINE
  5
151
330
1F
100
AcDbEntity
  8
0
  6
SLD-SOLID
 62
     7
100
AcDbLine
 10
6.060614463
 20
5.035147269
 30
0.0
 11
6.08511426
 21
5.049292354
 31
0.0
  0
LINE
  5
152
330
1F
100
AcDbEntity
  8
0
  6
SLD-SOLID
 62
     7
100
AcDbLine
 10
5.8951141882
 20
4.9937367991
 30
0.0
 11
5.9196142785
 21
4.9795917141
 31
0.0
  0
LINE
  5
153
330
1F
100
AcDbEntity
  8
0
  6
SLD-SOLID
 62
     7
100
AcDbLine
 10
6.060614463
 20
4.9795917141
 30
0.0
 11
6.08511426
 21
4.9937367991
 31
0.0
  0
LINE
  5
154
330
1F
100
AcDbEntity
  8
0
  6
SLD-SOLID
 62
     7
100
AcDbLine
 10
6.08511426
 20
5.8270701407
 30
0.0
 11
6.060614463
 21
5.8412152073
 31
0.0
  0
LINE
  5
155
330
1F
100
AcDbEntity
  8
0
  6
SLD-SOLID
 62
     7
100
AcDbLine
 10
5.9196142785
 20
5.8412152073
 30
0.0
 11
5.8951141882
 21
5.8270701407
 31
0.0
  0
LINE
  5
156
330
1F
100
AcDbEntity
  8
0
  6
SLD-SOLID
 62
     7
100
AcDbLine
 10
5.8951141882
 20
5.2715145752
 30
0.0
 11
5.9196142785
 21
5.2573694931
 31
0.0
  0
LINE
  5
157
330
1F
100
AcDbEntity
  8
0
  6
SLD-SOLID
 62
     7
100
AcDbLine
 10
6.060614463
 20
5.2573694931
 30
0.0
 11
6.08511426
 21
5.2715145752
 31
0.0
  0
LINE
  5
158
330
1F
100
AcDbEntity
  8
0
  6
SLD-SOLID
 62
     7
100
AcDbLine
 10
6.08511426
 20
4.9937367991
 30
0.0
 11
6.060614463
 21
5.007881884
 31
0.0
  0
LINE
  5
159
330
1F
100
AcDbEntity
  8
0
  6
SLD-SOLID
 62
     7
100
AcDbLine
 10
5.9196142785
 20
5.007881884
 30
0.0
 11
5.8951141882
 21
4.9937367991
 31
0.0
  0
LINE
  5
15A
330
1F
100
AcDbEntity
  8
0
  6
SLD-SOLID
 62
     7
100
AcDbLine
 10
5.8951141882
 20
5.4381812381
 30
0.0
 11
5.9196142785
 21
5.4240361624
 31
0.0
  0
LINE
  5
15B
330
1F
100
AcDbEntity
  8
0
  6
SLD-SOLID
 62
     7
100
AcDbLine
 10
6.060614463
 20
5.4240361624
 30
0.0
 11
6.08511426
 21
5.4381812381
 31
0.0
  0
LINE
  5
15C
330
1F
100
AcDbEntity
  8
0
  6
SLD-SOLID
 62
     7
100
AcDbLine
 10
6.08511426
 20
5.660403476
 30
0.0
 11
6.060614463
 21
5.6745485426
 31
0.0
  0
LINE
  5
15D
330
1F
100
AcDbEntity
  8
0
  6
SLD-SOLID
 62
     7
100
AcDbLine
 10
5.9196142785
 20
5.6745485426
 30
0.0
 11
5.8951141882
 21
5.660403476
 31
0.0
  0
LINE
  5
15E
330
1F
100
AcDbEntity
  8
0
  6
SLD-SOLID
 62
     7
100
AcDbLine
 10
6.08511426
 20
5.8826256955
 30
0.0
 11
6.060614463
 21
5.8967707621
 31
0.0
  0
LINE
  5
15F
330
1F
100
AcDbEntity
  8
0
  6
SLD-SOLID
 62
     7
100
AcDbLine
 10
5.9196142785
 20
5.8967707621
 30
0.0
 11
5.8951141882
 21
5.8826256955
 31
0.0
  0
LINE
  5
160
330
1F
100
AcDbEntity
  8
0
  6
SLD-SOLID
 62
     7
100
AcDbLine
 10
6.08511426
 20
5.3826256833
 30
0.0
 11
6.060614463
 21
5.3967707682
 31
0.0
  0
LINE
  5
161
330
1F
100
AcDbEntity
  8
0
  6
SLD-SOLID
 62
     7
100
AcDbLine
 10
5.9196142785
 20
5.3967707682
 30
0.0
 11
5.8951141882
 21
5.3826256833
 31
0.0
  0
LINE
  5
162
330
1F
100
AcDbEntity
  8
0
  6
SLD-SOLID
 62
     7
100
AcDbLine
 10
6.08511426
 20
5.7159590309
 30
0.0
 11
6.060614463
 21
5.7301040975
 31
0.0
  0
LINE
  5
163
330
1F
100
AcDbEntity
  8
0
  6
SLD-SOLID
 62
     7
100
AcDbLine
 10
5.9196142785
 20
5.7301040975
 30
0.0
 11
5.8951141882
 21
5.7159590309
 31
0.0
  0
LINE
  5
164
330
1F
100
AcDbEntity
  8
0
  6
SLD-SOLID
 62
     7
100
AcDbLine
 10
6.08511426
 20
5.3270701284
 30
0.0
 11
6.060614463
 21
5.3412152133
 31
0.0
  0
LINE
  5
165
330
1F
100
AcDbEntity
  8
0
  6
SLD-SOLID
 62
     7
100
AcDbLine
 10
5.9196142785
 20
5.3412152133
 30
0.0
 11
5.8951141882
 21
5.3270701284
 31
0.0
  0
LINE
  5
166
330
1F
100
AcDbEntity
  8
0
  6
SLD-SOLID
 62
     7
100
AcDbLine
 10
6.08511426
 20
4.7715145612
 30
0.0
 11
6.0714022584
 21
4.7794312431
 31
0.0
  0
LINE
  5
167
330
1F
100
AcDbEntity
  8
0
  6
SLD-SOLID
 62
     7
100
AcDbLine
 10
5.9088264831
 20
4.7794312431
 30
0.0
 11
5.8951141882
 21
4.7715145612
 31
0.0
  0
LINE
  5
168
330
1F
100
AcDbEntity
  8
0
  6
SLD-SOLID
 62
     7
100
AcDbLine
 10
5.8951141882
 20
5.660403476
 30
0.0
 11
5.9196142785
 21
5.6462583728
 31
0.0
  0
LINE
  5
169
330
1F
100
AcDbEntity
  8
0
  6
SLD-SOLID
 62
     7
100
AcDbLine
 10
6.060614463
 20
5.6462583728
 30
0.0
 11
6.08511426
 21
5.660403476
 31
0.0
  0
LINE
  5
16A
330
1F
100
AcDbEntity
  8
0
  6
SLD-SOLID
 62
     7
100
AcDbLine
 10
5.8951141882
 20
5.1048479088
 30
0.0
 11
5.9196142785
 21
5.0907028239
 31
0.0
  0
LINE
  5
16B
330
1F
100
AcDbEntity
  8
0
  6
SLD-SOLID
 62
     7
100
AcDbLine
 10
6.060614463
 20
5.0907028239
 30
0.0
 11
6.08511426
 21
5.1048479088
 31
0.0
  0
LINE
  5
16C
330
1F
100
AcDbEntity
  8
0
  6
SLD-SOLID
 62
     7
100
AcDbLine
 10
5.8951141882
 20
4.9381812259
 30
0.0
 11
5.9196142785
 21
4.9240361593
 31
0.0
  0
LINE
  5
16D
330
1F
100
AcDbEntity
  8
0
  6
SLD-SOLID
 62
     7
100
AcDbLine
 10
6.060614463
 20
4.9240361593
 30
0.0
 11
6.08511426
 21
4.9381812259
 31
0.0
  0
LINE
  5
16E
330
1F
100
AcDbEntity
  8
0
  6
SLD-SOLID
 62
     7
100
AcDbLine
 10
6.08511426
 20
5.2159590186
 30
0.0
 11
6.060614463
 21
5.230104099
 31
0.0
  0
LINE
  5
16F
330
1F
100
AcDbEntity
  8
0
  6
SLD-SOLID
 62
     7
100
AcDbLine
 10
5.9196142785
 20
5.230104099
 30
0.0
 11
5.8951141882
 21
5.2159590186
 31
0.0
  0
LINE
  5
170
330
1F
100
AcDbEntity
  8
0
  6
SLD-SOLID
 62
     7
100
AcDbLine
 10
6.08511426
 20
4.9381812259
 30
0.0
 11
6.060614463
 21
4.9523263291
 31
0.0
  0
LINE
  5
171
330
1F
100
AcDbEntity
  8
0
  6
SLD-SOLID
 62
     7
100
AcDbLine
 10
5.9196142785
 20
4.9523263291
 30
0.0
 11
5.8951141882
 21
4.9381812259
 31
0.0
  0
LINE
  5
172
330
1F
100
AcDbEntity
  8
0
  6
SLD-SOLID
 62
     7
100
AcDbLine
 10
5.8951141882
 20
5.3826256833
 30
0.0
 11
5.9196142785
 21
5.3684806075
 31
0.0
  0
LINE
  5
173
330
1F
100
AcDbEntity
  8
0
  6
SLD-SOLID
 62
     7
100
AcDbLine
 10
6.060614463
 20
5.3684806075
 30
0.0
 11
6.08511426
 21
5.3826256833
 31
0.0
  0
LINE
  5
174
330
1F
100
AcDbEntity
  8
0
  6
SLD-SOLID
 62
     7
100
AcDbLine
 10
5.8951141882
 20
5.3270701284
 30
0.0
 11
5.9196142785
 21
5.312925048
 31
0.0
  0
LINE
  5
175
330
1F
100
AcDbEntity
  8
0
  6
SLD-SOLID
 62
     7
100
AcDbLine
 10
6.060614463
 20
5.312925048
 30
0.0
 11
6.08511426
 21
5.3270701284
 31
0.0
  0
LINE
  5
176
330
1F
100
AcDbEntity
  8
0
  6
SLD-SOLID
 62
     7
100
AcDbLine
 10
6.08511426
 20
5.5492923479
 30
0.0
 11
6.060614463
 21
5.5634374328
 31
0.0
  0
LINE
  5
177
330
1F
100
AcDbEntity
  8
0
  6
SLD-SOLID
 62
     7
100
AcDbLine
 10
5.9196142785
 20
5.5634374328
 30
0.0
 11
5.8951141882
 21
5.5492923479
 31
0.0
  0
LINE
  5
178
330
1F
100
AcDbEntity
  8
0
  6
SLD-SOLID
 62
     7
100
AcDbLine
 10
6.08511426
 20
5.1604034637
 30
0.0
 11
6.060614463
 21
5.1745485486
 31
0.0
  0
LINE
  5
179
330
1F
100
AcDbEntity
  8
0
  6
SLD-SOLID
 62
     7
100
AcDbLine
 10
5.9196142785
 20
5.1745485486
 30
0.0
 11
5.8951141882
 21
5.1604034637
 31
0.0
  0
LINE
  5
17A
330
1F
100
AcDbEntity
  8
0
  6
SLD-SOLID
 62
     7
100
AcDbLine
 10
5.8951141882
 20
5.7715145858
 30
0.0
 11
5.9196142785
 21
5.7573694825
 31
0.0
  0
LINE
  5
17B
330
1F
100
AcDbEntity
  8
0
  6
SLD-SOLID
 62
     7
100
AcDbLine
 10
6.060614463
 20
5.7573694825
 30
0.0
 11
6.08511426
 21
5.7715145858
 31
0.0
  0
LINE
  5
17C
330
1F
100
AcDbEntity
  8
0
  6
SLD-SOLID
 62
     7
100
AcDbLine
 10
6.08511426
 20
5.6048479211
 30
0.0
 11
6.060614463
 21
5.6189929877
 31
0.0
  0
LINE
  5
17D
330
1F
100
AcDbEntity
  8
0
  6
SLD-SOLID
 62
     7
100
AcDbLine
 10
5.9196142785
 20
5.6189929877
 30
0.0
 11
5.8951141882
 21
5.6048479211
 31
0.0
  0
LINE
  5
17E
330
1F
100
AcDbEntity
  8
0
  6
SLD-SOLID
 62
     7
100
AcDbLine
 10
5.8951141882
 20
4.7715145612
 30
0.0
 11
5.9196142785
 21
4.7573694946
 31
0.0
  0
LINE
  5
17F
330
1F
100
AcDbEntity
  8
0
  6
SLD-SOLID
 62
     7
100
AcDbLine
 10
6.060614463
 20
4.7573694946
 30
0.0
 11
6.08511426
 21
4.7715145612
 31
0.0
  0
LINE
  5
180
330
1F
100
AcDbEntity
  8
0
  6
SLD-SOLID
 62
     7
100
AcDbLine
 10
6.08511426
 20
5.2715145752
 30
0.0
 11
6.060614463
 21
5.2856596567
 31
0.0
  0
LINE
  5
181
330
1F
100
AcDbEntity
  8
0
  6
SLD-SOLID
 62
     7
100
AcDbLine
 10
5.9196142785
 20
5.2856596567
 30
0.0
 11
5.8951141882
 21
5.2715145752
 31
0.0
  0
LINE
  5
182
330
1F
100
AcDbEntity
  8
0
  6
SLD-SOLID
 62
     7
100
AcDbLine
 10
5.8951141882
 20
5.7159590309
 30
0.0
 11
5.9196142785
 21
5.7018139276
 31
0.0
  0
LINE
  5
183
330
1F
100
AcDbEntity
  8
0
  6
SLD-SOLID
 62
     7
100
AcDbLine
 10
6.060614463
 20
5.7018139276
 30
0.0
 11
6.08511426
 21
5.7159590309
 31
0.0
  0
LINE
  5
184
330
1F
100
AcDbEntity
  8
0
  6
SLD-SOLID
 62
     7
100
AcDbLine
 10
5.8951141882
 20
5.1604034637
 30
0.0
 11
5.9196142785
 21
5.1462583788
 31
0.0
  0
LINE
  5
185
330
1F
100
AcDbEntity
  8
0
  6
SLD-SOLID
 62
     7
100
AcDbLine
 10
6.060614463
 20
5.1462583788
 30
0.0
 11
6.08511426
 21
5.1604034637
 31
0.0
  0
LINE
  5
186
330
1F
100
AcDbEntity
  8
0
  6
SLD-SOLID
 62
     7
100
AcDbLine
 10
5.8951141882
 20
5.2159590186
 30
0.0
 11
5.9196142785
 21
5.2018139383
 31
0.0
  0
LINE
  5
187
330
1F
100
AcDbEntity
  8
0
  6
SLD-SOLID
 62
     7
100
AcDbLine
 10
6.060614463
 20
5.2018139383
 30
0.0
 11
6.08511426
 21
5.2159590186
 31
0.0
  0
LINE
  5
188
330
1F
100
AcDbEntity
  8
0
  6
SLD-SOLID
 62
     7
100
AcDbLine
 10
6.08511426
 20
5.9381812504
 30
0.0
 11
6.060614463
 21
5.9523263537
 31
0.0
  0
LINE
  5
189
330
1F
100
AcDbEntity
  8
0
  6
SLD-SOLID
 62
     7
100
AcDbLine
 10
5.9196142785
 20
5.9523263537
 30
0.0
 11
5.8951141882
 21
5.9381812504
 31
0.0
  0
LINE
  5
18A
330
1F
100
AcDbEntity
  8
0
  6
SLD-SOLID
 62
     7
100
AcDbLine
 10
5.8951141882
 20
5.9381812504
 30
0.0
 11
5.9196142785
 21
5.9240361472
 31
0.0
  0
LINE
  5
18B
330
1F
100
AcDbEntity
  8
0
  6
SLD-SOLID
 62
     7
100
AcDbLine
 10
6.060614463
 20
5.9240361472
 30
0.0
 11
6.08511426
 21
5.9381812504
 31
0.0
  0
LINE
  5
18C
330
1F
100
AcDbEntity
  8
0
  6
SLD-SOLID
 62
     7
100
AcDbLine
 10
5.8951141882
 20
5.6048479211
 30
0.0
 11
5.9196142785
 21
5.5907028179
 31
0.0
  0
LINE
  5
18D
330
1F
100
AcDbEntity
  8
0
  6
SLD-SOLID
 62
     7
100
AcDbLine
 10
6.060614463
 20
5.5907028179
 30
0.0
 11
6.08511426
 21
5.6048479211
 31
0.0
  0
LINE
  5
18E
330
1F
100
AcDbEntity
  8
0
  6
SLD-SOLID
 62
     7
100
AcDbLine
 10
5.8951141882
 20
5.5492923479
 30
0.0
 11
5.9196142785
 21
5.535147263
 31
0.0
  0
LINE
  5
18F
330
1F
100
AcDbEntity
  8
0
  6
SLD-SOLID
 62
     7
100
AcDbLine
 10
6.060614463
 20
5.535147263
 30
0.0
 11
6.08511426
 21
5.5492923479
 31
0.0
  0
LINE
  5
190
330
1F
100
AcDbEntity
  8
0
  6
SLD-SOLID
 62
     7
100
AcDbLine
 10
5.8951141882
 20
4.7159590063
 30
0.0
 11
5.9196142785
 21
4.7018139397
 31
0.0
  0
LINE
  5
191
330
1F
100
AcDbEntity
  8
0
  6
SLD-SOLID
 62
     7
100
AcDbLine
 10
6.060614463
 20
4.7018139397
 30
0.0
 11
6.08511426
 21
4.7159590063
 31
0.0
  0
LINE
  5
192
330
1F
100
AcDbEntity
  8
0
  6
SLD-SOLID
 62
     7
100
AcDbLine
 10
5.8951141882
 20
4.6604034514
 30
0.0
 11
5.9196142785
 21
4.6462583482
 31
0.0
  0
LINE
  5
193
330
1F
100
AcDbEntity
  8
0
  6
SLD-SOLID
 62
     7
100
AcDbLine
 10
6.060614463
 20
4.6462583482
 30
0.0
 11
6.08511426
 21
4.6604034514
 31
0.0
  0
LINE
  5
194
330
1F
100
AcDbEntity
  8
0
  6
SLD-SOLID
 62
     7
100
AcDbLine
 10
6.08511426
 20
4.6048479332
 30
0.0
 11
6.060614463
 21
4.6189929631
 31
0.0
  0
LINE
  5
195
330
1F
100
AcDbEntity
  8
0
  6
SLD-SOLID
 62
     7
100
AcDbLine
 10
5.9196142785
 20
4.6189929631
 30
0.0
 11
5.8951141882
 21
4.6048479332
 31
0.0
  0
LINE
  5
196
330
1F
100
AcDbEntity
  8
0
  6
SLD-SOLID
 62
     7
100
AcDbLine
 10
5.8951141882
 20
4.6048479332
 30
0.0
 11
5.9196142785
 21
4.59070283
 31
0.0
  0
LINE
  5
197
330
1F
100
AcDbEntity
  8
0
  6
SLD-SOLID
 62
     7
100
AcDbLine
 10
6.060614463
 20
4.59070283
 30
0.0
 11
6.08511426
 21
4.6048479332
 31
0.0
  0
LINE
  5
198
330
1F
100
AcDbEntity
  8
0
  6
SLD-SOLID
 62
     7
100
AcDbLine
 10
6.08511426
 20
4.7159590063
 30
0.0
 11
6.060614463
 21
4.7301041096
 31
0.0
  0
LINE
  5
199
330
1F
100
AcDbEntity
  8
0
  6
SLD-SOLID
 62
     7
100
AcDbLine
 10
5.9196142785
 20
4.7301041096
 30
0.0
 11
5.8951141882
 21
4.7159590063
 31
0.0
  0
LINE
  5
19A
330
1F
100
AcDbEntity
  8
0
  6
SLD-SOLID
 62
     7
100
AcDbLine
 10
6.0610579779
 20
4.5631812212
 30
0.0
 11
6.060614463
 21
4.5634374449
 31
0.0
  0
LINE
  5
19B
330
1F
100
AcDbEntity
  8
0
  6
SLD-SOLID
 62
     7
100
AcDbLine
 10
5.9196142785
 20
4.5634374449
 30
0.0
 11
5.9191704703
 21
4.5631812212
 31
0.0
  0
LINE
  5
19C
330
1F
100
AcDbEntity
  8
0
  6
SLD-SOLID
 62
     7
100
AcDbLine
 10
6.08511426
 20
4.6604034514
 30
0.0
 11
6.060614463
 21
4.6745485547
 31
0.0
  0
LINE
  5
19D
330
1F
100
AcDbEntity
  8
0
  6
SLD-SOLID
 62
     7
100
AcDbLine
 10
5.9196142785
 20
4.6745485547
 30
0.0
 11
5.8951141882
 21
4.6604034514
 31
0.0
  0
LINE
  5
19E
330
1F
100
AcDbEntity
  8
0
  6
SLD-SOLID
 62
     7
100
AcDbLine
 10
6.060614463
 20
6.7679792512
 30
0.0
 11
5.9901143708
 21
6.9381813117
 31
0.0
  0
LINE
  5
19F
330
1F
100
AcDbEntity
  8
0
  6
SLD-SOLID
 62
     7
100
AcDbLine
 10
5.9901143708
 20
6.9381813117
 30
0.0
 11
5.9196142785
 21
6.7679792512
 31
0.0
  0
LINE
  5
1A0
330
1F
100
AcDbEntity
  8
0
  6
SLD-SOLID
 62
     7
100
AcDbLine
 10
6.060614463
 20
6.7301040487
 30
0.0
 11
6.060614463
 21
6.7679792512
 31
0.0
  0
LINE
  5
1A1
330
1F
100
AcDbEntity
  8
0
  6
SLD-SOLID
 62
     7
100
AcDbLine
 10
5.9196142785
 20
6.7679792512
 30
0.0
 11
5.9196142785
 21
6.7301040487
 31
0.0
  0
LINE
  5
1A2
330
1F
100
AcDbEntity
  8
0
  6
SLD-SOLID
 62
     7
100
AcDbLine
 10
6.060614463
 20
6.452326311
 30
0.0
 11
6.060614463
 21
6.479591696
 31
0.0
  0
LINE
  5
1A3
330
1F
100
AcDbEntity
  8
0
  6
SLD-SOLID
 62
     7
100
AcDbLine
 10
5.9196142785
 20
6.479591696
 30
0.0
 11
5.9196142785
 21
6.452326311
 31
0.0
  0
LINE
  5
1A4
330
1F
100
AcDbEntity
  8
0
  6
SLD-SOLID
 62
     7
100
AcDbLine
 10
6.060614463
 20
6.6189930123
 30
0.0
 11
6.060614463
 21
6.646258324
 31
0.0
  0
LINE
  5
1A5
330
1F
100
AcDbEntity
  8
0
  6
SLD-SOLID
 62
     7
100
AcDbLine
 10
5.9196142785
 20
6.646258324
 30
0.0
 11
5.9196142785
 21
6.6189930123
 31
0.0
  0
LINE
  5
1A6
330
1F
100
AcDbEntity
  8
0
  6
SLD-SOLID
 62
     7
100
AcDbLine
 10
6.060614463
 20
6.6745485305
 30
0.0
 11
6.060614463
 21
6.7018139889
 31
0.0
  0
LINE
  5
1A7
330
1F
100
AcDbEntity
  8
0
  6
SLD-SOLID
 62
     7
100
AcDbLine
 10
5.9196142785
 20
6.7018139889
 30
0.0
 11
5.9196142785
 21
6.6745485305
 31
0.0
  0
LINE
  5
1A8
330
1F
100
AcDbEntity
  8
0
  6
SLD-SOLID
 62
     7
100
AcDbLine
 10
6.060614463
 20
6.5634374941
 30
0.0
 11
6.060614463
 21
6.5907028058
 31
0.0
  0
LINE
  5
1A9
330
1F
100
AcDbEntity
  8
0
  6
SLD-SOLID
 62
     7
100
AcDbLine
 10
5.9196142785
 20
6.5907028058
 30
0.0
 11
5.9196142785
 21
6.5634374941
 31
0.0
  0
LINE
  5
1AA
330
1F
100
AcDbEntity
  8
0
  6
SLD-SOLID
 62
     7
100
AcDbLine
 10
6.060614463
 20
6.5078818292
 30
0.0
 11
6.060614463
 21
6.5351472876
 31
0.0
  0
LINE
  5
1AB
330
1F
100
AcDbEntity
  8
0
  6
SLD-SOLID
 62
     7
100
AcDbLine
 10
5.9196142785
 20
6.5351472876
 30
0.0
 11
5.9196142785
 21
6.5078818292
 31
0.0
  0
LINE
  5
1AC
330
1F
100
AcDbEntity
  8
0
  6
SLD-SOLID
 62
     7
100
AcDbLine
 10
6.060614463
 20
6.2466223806
 30
0.0
 11
6.060614463
 21
6.2573694765
 31
0.0
  0
LINE
  5
1AD
330
1F
100
AcDbEntity
  8
0
  6
SLD-SOLID
 62
     7
100
AcDbLine
 10
5.9196142785
 20
6.2573694765
 30
0.0
 11
5.9196142785
 21
6.2466223806
 31
0.0
  0
LINE
  5
1AE
330
1F
100
AcDbEntity
  8
0
  6
SLD-SOLID
 62
     7
100
AcDbLine
 10
6.060614463
 20
6.3967707928
 30
0.0
 11
6.060614463
 21
6.4240361778
 31
0.0
  0
LINE
  5
1AF
330
1F
100
AcDbEntity
  8
0
  6
SLD-SOLID
 62
     7
100
AcDbLine
 10
5.9196142785
 20
6.4240361778
 30
0.0
 11
5.9196142785
 21
6.3967707928
 31
0.0
  0
LINE
  5
1B0
330
1F
100
AcDbEntity
  8
0
  6
SLD-SOLID
 62
     7
100
AcDbLine
 10
6.060614463
 20
6.285659683
 30
0.0
 11
6.060614463
 21
6.312925068
 31
0.0
  0
LINE
  5
1B1
330
1F
100
AcDbEntity
  8
0
  6
SLD-SOLID
 62
     7
100
AcDbLine
 10
5.9196142785
 20
6.312925068
 30
0.0
 11
5.9196142785
 21
6.285659683
 31
0.0
  0
LINE
  5
1B2
330
1F
100
AcDbEntity
  8
0
  6
SLD-SOLID
 62
     7
100
AcDbLine
 10
6.060614463
 20
6.3412152012
 30
0.0
 11
6.060614463
 21
6.3684805862
 31
0.0
  0
LINE
  5
1B3
330
1F
100
AcDbEntity
  8
0
  6
SLD-SOLID
 62
     7
100
AcDbLine
 10
5.9196142785
 20
6.3684805862
 30
0.0
 11
5.9196142785
 21
6.3412152012
 31
0.0
  0
LINE
  5
1B4
330
1F
100
AcDbEntity
  8
0
  6
SLD-SOLID
 62
     7
100
AcDbLine
 10
6.060614463
 20
5.507881878
 30
0.0
 11
6.060614463
 21
5.535147263
 31
0.0
  0
LINE
  5
1B5
330
1F
100
AcDbEntity
  8
0
  6
SLD-SOLID
 62
     7
100
AcDbLine
 10
5.9196142785
 20
5.535147263
 30
0.0
 11
5.9196142785
 21
5.507881878
 31
0.0
  0
LINE
  5
1B6
330
1F
100
AcDbEntity
  8
0
  6
SLD-SOLID
 62
     7
100
AcDbLine
 10
6.060614463
 20
5.7301040975
 30
0.0
 11
6.060614463
 21
5.7573694825
 31
0.0
  0
LINE
  5
1B7
330
1F
100
AcDbEntity
  8
0
  6
SLD-SOLID
 62
     7
100
AcDbLine
 10
5.9196142785
 20
5.7573694825
 30
0.0
 11
5.9196142785
 21
5.7301040975
 31
0.0
  0
LINE
  5
1B8
330
1F
100
AcDbEntity
  8
0
  6
SLD-SOLID
 62
     7
100
AcDbLine
 10
6.060614463
 20
5.2856596567
 30
0.0
 11
6.060614463
 21
5.312925048
 31
0.0
  0
LINE
  5
1B9
330
1F
100
AcDbEntity
  8
0
  6
SLD-SOLID
 62
     7
100
AcDbLine
 10
5.9196142785
 20
5.312925048
 30
0.0
 11
5.9196142785
 21
5.2856596567
 31
0.0
  0
LINE
  5
1BA
330
1F
100
AcDbEntity
  8
0
  6
SLD-SOLID
 62
     7
100
AcDbLine
 10
6.060614463
 20
5.8967707621
 30
0.0
 11
6.060614463
 21
5.9240361472
 31
0.0
  0
LINE
  5
1BB
330
1F
100
AcDbEntity
  8
0
  6
SLD-SOLID
 62
     7
100
AcDbLine
 10
5.9196142785
 20
5.9240361472
 30
0.0
 11
5.9196142785
 21
5.8967707621
 31
0.0
  0
LINE
  5
1BC
330
1F
100
AcDbEntity
  8
0
  6
SLD-SOLID
 62
     7
100
AcDbLine
 10
6.060614463
 20
5.4523263231
 30
0.0
 11
6.060614463
 21
5.4795917081
 31
0.0
  0
LINE
  5
1BD
330
1F
100
AcDbEntity
  8
0
  6
SLD-SOLID
 62
     7
100
AcDbLine
 10
5.9196142785
 20
5.4795917081
 30
0.0
 11
5.9196142785
 21
5.4523263231
 31
0.0
  0
LINE
  5
1BE
330
1F
100
AcDbEntity
  8
0
  6
SLD-SOLID
 62
     7
100
AcDbLine
 10
6.060614463
 20
5.6189929877
 30
0.0
 11
6.060614463
 21
5.6462583728
 31
0.0
  0
LINE
  5
1BF
330
1F
100
AcDbEntity
  8
0
  6
SLD-SOLID
 62
     7
100
AcDbLine
 10
5.9196142785
 20
5.6462583728
 30
0.0
 11
5.9196142785
 21
5.6189929877
 31
0.0
  0
LINE
  5
1C0
330
1F
100
AcDbEntity
  8
0
  6
SLD-SOLID
 62
     7
100
AcDbLine
 10
6.060614463
 20
5.9523263537
 30
0.0
 11
6.060614463
 21
5.9744312583
 31
0.0
  0
LINE
  5
1C1
330
1F
100
AcDbEntity
  8
0
  6
SLD-SOLID
 62
     7
100
AcDbLine
 10
5.9196142785
 20
5.9744312583
 30
0.0
 11
5.9196142785
 21
5.9523263537
 31
0.0
  0
LINE
  5
1C2
330
1F
100
AcDbEntity
  8
0
  6
SLD-SOLID
 62
     7
100
AcDbLine
 10
6.060614463
 20
5.6745485426
 30
0.0
 11
6.060614463
 21
5.7018139276
 31
0.0
  0
LINE
  5
1C3
330
1F
100
AcDbEntity
  8
0
  6
SLD-SOLID
 62
     7
100
AcDbLine
 10
5.9196142785
 20
5.7018139276
 30
0.0
 11
5.9196142785
 21
5.6745485426
 31
0.0
  0
LINE
  5
1C4
330
1F
100
AcDbEntity
  8
0
  6
SLD-SOLID
 62
     7
100
AcDbLine
 10
6.060614463
 20
5.5634374328
 30
0.0
 11
6.060614463
 21
5.5907028179
 31
0.0
  0
LINE
  5
1C5
330
1F
100
AcDbEntity
  8
0
  6
SLD-SOLID
 62
     7
100
AcDbLine
 10
5.9196142785
 20
5.5907028179
 30
0.0
 11
5.9196142785
 21
5.5634374328
 31
0.0
  0
LINE
  5
1C6
330
1F
100
AcDbEntity
  8
0
  6
SLD-SOLID
 62
     7
100
AcDbLine
 10
6.060614463
 20
5.3967707682
 30
0.0
 11
6.060614463
 21
5.4240361624
 31
0.0
  0
LINE
  5
1C7
330
1F
100
AcDbEntity
  8
0
  6
SLD-SOLID
 62
     7
100
AcDbLine
 10
5.9196142785
 20
5.4240361624
 30
0.0
 11
5.9196142785
 21
5.3967707682
 31
0.0
  0
LINE
  5
1C8
330
1F
100
AcDbEntity
  8
0
  6
SLD-SOLID
 62
     7
100
AcDbLine
 10
6.060614463
 20
5.3412152133
 30
0.0
 11
6.060614463
 21
5.3684806075
 31
0.0
  0
LINE
  5
1C9
330
1F
100
AcDbEntity
  8
0
  6
SLD-SOLID
 62
     7
100
AcDbLine
 10
5.9196142785
 20
5.3684806075
 30
0.0
 11
5.9196142785
 21
5.3412152133
 31
0.0
  0
LINE
  5
1CA
330
1F
100
AcDbEntity
  8
0
  6
SLD-SOLID
 62
     7
100
AcDbLine
 10
6.060614463
 20
5.230104099
 30
0.0
 11
6.060614463
 21
5.2573694931
 31
0.0
  0
LINE
  5
1CB
330
1F
100
AcDbEntity
  8
0
  6
SLD-SOLID
 62
     7
100
AcDbLine
 10
5.9196142785
 20
5.2573694931
 30
0.0
 11
5.9196142785
 21
5.230104099
 31
0.0
  0
LINE
  5
1CC
330
1F
100
AcDbEntity
  8
0
  6
SLD-SOLID
 62
     7
100
AcDbLine
 10
6.060614463
 20
5.8412152073
 30
0.0
 11
6.060614463
 21
5.8684805923
 31
0.0
  0
LINE
  5
1CD
330
1F
100
AcDbEntity
  8
0
  6
SLD-SOLID
 62
     7
100
AcDbLine
 10
5.9196142785
 20
5.8684805923
 30
0.0
 11
5.9196142785
 21
5.8412152073
 31
0.0
  0
LINE
  5
1CE
330
1F
100
AcDbEntity
  8
0
  6
SLD-SOLID
 62
     7
100
AcDbLine
 10
6.060614463
 20
5.7856596524
 30
0.0
 11
6.060614463
 21
5.8129250374
 31
0.0
  0
LINE
  5
1CF
330
1F
100
AcDbEntity
  8
0
  6
SLD-SOLID
 62
     7
100
AcDbLine
 10
5.9196142785
 20
5.8129250374
 30
0.0
 11
5.9196142785
 21
5.7856596524
 31
0.0
  0
LINE
  5
1D0
330
1F
100
AcDbEntity
  8
0
  6
SLD-SOLID
 62
     7
100
AcDbLine
 10
6.060614463
 20
5.0634374389
 30
0.0
 11
6.060614463
 21
5.0907028239
 31
0.0
  0
LINE
  5
1D1
330
1F
100
AcDbEntity
  8
0
  6
SLD-SOLID
 62
     7
100
AcDbLine
 10
5.9196142785
 20
5.0907028239
 30
0.0
 11
5.9196142785
 21
5.0634374389
 31
0.0
  0
LINE
  5
1D2
330
1F
100
AcDbEntity
  8
0
  6
SLD-SOLID
 62
     7
100
AcDbLine
 10
6.060614463
 20
5.1745485486
 30
0.0
 11
6.060614463
 21
5.2018139383
 31
0.0
  0
LINE
  5
1D3
330
1F
100
AcDbEntity
  8
0
  6
SLD-SOLID
 62
     7
100
AcDbLine
 10
5.9196142785
 20
5.2018139383
 30
0.0
 11
5.9196142785
 21
5.1745485486
 31
0.0
  0
LINE
  5
1D4
330
1F
100
AcDbEntity
  8
0
  6
SLD-SOLID
 62
     7
100
AcDbLine
 10
6.060614463
 20
4.9523263291
 30
0.0
 11
6.060614463
 21
4.9795917141
 31
0.0
  0
LINE
  5
1D5
330
1F
100
AcDbEntity
  8
0
  6
SLD-SOLID
 62
     7
100
AcDbLine
 10
5.9196142785
 20
4.9795917141
 30
0.0
 11
5.9196142785
 21
4.9523263291
 31
0.0
  0
LINE
  5
1D6
330
1F
100
AcDbEntity
  8
0
  6
SLD-SOLID
 62
     7
100
AcDbLine
 10
6.060614463
 20
4.9044312324
 30
0.0
 11
6.060614463
 21
4.9240361593
 31
0.0
  0
LINE
  5
1D7
330
1F
100
AcDbEntity
  8
0
  6
SLD-SOLID
 62
     7
100
AcDbLine
 10
5.9196142785
 20
4.9240361593
 30
0.0
 11
5.9196142785
 21
4.9044312324
 31
0.0
  0
LINE
  5
1D8
330
1F
100
AcDbEntity
  8
0
  6
SLD-SOLID
 62
     7
100
AcDbLine
 10
6.060614463
 20
5.1189929938
 30
0.0
 11
6.060614463
 21
5.1462583788
 31
0.0
  0
LINE
  5
1D9
330
1F
100
AcDbEntity
  8
0
  6
SLD-SOLID
 62
     7
100
AcDbLine
 10
5.9196142785
 20
5.1462583788
 30
0.0
 11
5.9196142785
 21
5.1189929938
 31
0.0
  0
LINE
  5
1DA
330
1F
100
AcDbEntity
  8
0
  6
SLD-SOLID
 62
     7
100
AcDbLine
 10
6.060614463
 20
5.007881884
 30
0.0
 11
6.060614463
 21
5.035147269
 31
0.0
  0
LINE
  5
1DB
330
1F
100
AcDbEntity
  8
0
  6
SLD-SOLID
 62
     7
100
AcDbLine
 10
5.9196142785
 20
5.035147269
 30
0.0
 11
5.9196142785
 21
5.007881884
 31
0.0
  0
LINE
  5
1DC
330
1F
100
AcDbEntity
  8
0
  6
SLD-SOLID
 62
     7
100
AcDbLine
 10
6.060614463
 20
4.6189929631
 30
0.0
 11
6.060614463
 21
4.6462583482
 31
0.0
  0
LINE
  5
1DD
330
1F
100
AcDbEntity
  8
0
  6
SLD-SOLID
 62
     7
100
AcDbLine
 10
5.9196142785
 20
4.6462583482
 30
0.0
 11
5.9196142785
 21
4.6189929631
 31
0.0
  0
LINE
  5
1DE
330
1F
100
AcDbEntity
  8
0
  6
SLD-SOLID
 62
     7
100
AcDbLine
 10
6.060614463
 20
4.7301041096
 30
0.0
 11
6.060614463
 21
4.7573694946
 31
0.0
  0
LINE
  5
1DF
330
1F
100
AcDbEntity
  8
0
  6
SLD-SOLID
 62
     7
100
AcDbLine
 10
5.9196142785
 20
4.7573694946
 30
0.0
 11
5.9196142785
 21
4.7301041096
 31
0.0
  0
LINE
  5
1E0
330
1F
100
AcDbEntity
  8
0
  6
SLD-SOLID
 62
     7
100
AcDbLine
 10
6.060614463
 20
4.5634374449
 30
0.0
 11
6.060614463
 21
4.59070283
 31
0.0
  0
LINE
  5
1E1
330
1F
100
AcDbEntity
  8
0
  6
SLD-SOLID
 62
     7
100
AcDbLine
 10
5.9196142785
 20
4.59070283
 30
0.0
 11
5.9196142785
 21
4.5634374449
 31
0.0
  0
LINE
  5
1E2
330
1F
100
AcDbEntity
  8
0
  6
SLD-SOLID
 62
     7
100
AcDbLine
 10
6.060614463
 20
4.6745485547
 30
0.0
 11
6.060614463
 21
4.7018139397
 31
0.0
  0
LINE
  5
1E3
330
1F
100
AcDbEntity
  8
0
  6
SLD-SOLID
 62
     7
100
AcDbLine
 10
5.9196142785
 20
4.7018139397
 30
0.0
 11
5.9196142785
 21
4.6745485547
 31
0.0
  0
LINE
  5
1E4
330
1F
100
AcDbEntity
  8
0
  6
SLD-SOLID
 62
     7
100
AcDbLine
 10
15.4926141971
 20
3.9411813066
 30
0.0
 11
15.6066145335
 21
3.9411813066
 31
0.0
  0
LINE
  5
1E5
330
1F
100
AcDbEntity
  8
0
  6
SLD-SOLID
 62
     7
100
AcDbLine
 10
2.8076141219
 20
3.9411813066
 30
0.0
 11
2.9216144583
 21
3.9411813066
 31
0.0
  0
LINE
  5
1E6
330
1F
100
AcDbEntity
  8
0
  6
SLD-SOLID
 62
     7
100
AcDbLine
 10
9.058614329
 20
3.9411813066
 30
0.0
 11
9.1726143285
 21
3.9411813066
 31
0.0
  0
LINE
  5
1E7
330
1F
100
AcDbEntity
  8
0
  6
SLD-SOLID
 62
     7
100
AcDbLine
 10
9.2416143269
 20
3.9411813066
 30
0.0
 11
9.3556143264
 21
3.9411813066
 31
0.0
  0
SPLINE
  5
1E8
330
1F
100
AcDbEntity
  8
0
  6
SLD-SOLID
 62
     7
100
AcDbSpline
210
0.0
220
0.0
230
1.0
 70
     8
 71
     3
 72
    12
 73
     8
 74
     0
 42
0.00000001
 43
0.00000001
 40
0.0
 40
0.0
 40
0.0
 40
0.0
 40
0.2368701373277879
 40
0.467365772166095
 40
0.6978567974118279
 40
0.9283496066638415
 40
1.0
 40
1.0
 40
1.0
 40
1.0
 10
2.585423142033842
 20
6.031431206534509
 30
0.0
 10
2.582673113862012
 20
6.024359596160787
 30
0.0
 10
2.577247064573971
 20
6.010406682213684
 30
0.0
 10
2.569147798116144
 20
5.992377334959587
 30
0.0
 10
2.561127738802279
 20
5.979644113113968
 30
0.0
 10
2.554931220095809
 20
5.97481587824641
 30
0.0
 10
2.551441757169125
 20
5.974504983964793
 30
0.0
 10
2.550614264148969
 20
5.974431258336108
 30
0.0
  0
LINE
  5
1E9
330
1F
100
AcDbEntity
  8
0
  6
SLD-SOLID
 62
     7
100
AcDbLine
 10
2.5506142641
 20
6.026431251
 30
0.0
 11
2.5506142641
 21
5.9744312583
 31
0.0
  0
LINE
  5
1EA
330
1F
100
AcDbEntity
  8
0
  6
SLD-SOLID
 62
     7
100
AcDbLine
 10
2.585423142
 20
6.0314312065
 30
0.0
 11
2.5506142641
 21
6.026431251
 31
0.0
  0
LINE
  5
1EB
330
1F
100
AcDbEntity
  8
0
  6
SLD-SOLID
 62
     7
100
AcDbLine
 10
2.585423142
 20
6.0314312065
 30
0.0
 11
2.8006140961
 21
6.2466223806
 31
0.0
  0
LINE
  5
1EC
330
1F
100
AcDbEntity
  8
0
  6
SLD-SOLID
 62
     7
100
AcDbLine
 10
2.8006140961
 20
6.2466223806
 30
0.0
 11
15.6136145593
 21
6.2466223806
 31
0.0
  0
LINE
  5
1ED
330
1F
100
AcDbEntity
  8
0
  6
SLD-SOLID
 62
     7
100
AcDbLine
 10
15.6136145593
 20
6.2466223806
 30
0.0
 11
15.8288055134
 21
6.0314312065
 31
0.0
  0
SPLINE
  5
1EE
330
1F
100
AcDbEntity
  8
0
  6
SLD-SOLID
 62
     7
100
AcDbSpline
210
0.0
220
0.0
230
1.0
 70
     8
 71
     3
 72
    12
 73
     8
 74
     0
 42
0.00000001
 43
0.00000001
 40
0.0
 40
0.0
 40
0.0
 40
0.0
 40
0.2368705263670392
 40
0.467366314448991
 40
0.6978596757829193
 40
0.9283502886533609
 40
1.0
 40
1.0
 40
1.0
 40
1.0
 10
15.86361439123546
 20
5.974431258336108
 30
0.0
 10
15.86086434249526
 20
5.975198794581299
 30
0.0
 10
15.85543825524001
 20
5.976713210881302
 30
0.0
 10
15.84733926677375
 20
5.988284315744113
 30
0.0
 10
15.83931804391214
 20
6.004790989966307
 30
0.0
 10
15.83312253315482
 20
6.020327926842513
 30
0.0
 10
15.8296330186167
 20
6.029302881246937
 30
0.0
 10
15.82880551335059
 20
6.031431206534509
 30
0.0
  0
LINE
  5
1EF
330
1F
100
AcDbEntity
  8
0
  6
SLD-SOLID
 62
     7
100
AcDbLine
 10
15.8636143912
 20
5.9744312583
 30
0.0
 11
2.5506142641
 21
5.9744312583
 31
0.0
  0
LINE
  5
1F0
330
1F
100
AcDbEntity
  8
0
  6
SLD-SOLID
 62
     7
100
AcDbLine
 10
15.8636143912
 20
6.026431251
 30
0.0
 11
15.8288055134
 21
6.0314312065
 31
0.0
  0
LINE
  5
1F1
330
1F
100
AcDbEntity
  8
0
  6
SLD-SOLID
 62
     7
100
AcDbLine
 10
15.8636143912
 20
6.026431251
 30
0.0
 11
15.8636143912
 21
5.9744312583
 31
0.0
  0
ARC
  5
1F2
330
1F
100
AcDbEntity
  8
0
  6
SLD-SOLID
 62
     7
100
AcDbCircle
 10
15.8636143277
 20
5.9694312417
 30
0.0
 40
0.0569999999999995
100
AcDbArc
 50
15.0
 51
90.0
  0
ARC
  5
1F3
330
1F
100
AcDbEntity
  8
0
  6
SLD-SOLID
 62
     7
100
AcDbCircle
 10
15.8636143277
 20
5.9694312417
 30
0.0
 40
0.004999999999999
100
AcDbArc
 50
15.0
 51
90.0
  0
ARC
  5
1F4
330
1F
100
AcDbEntity
  8
0
  6
SLD-SOLID
 62
     7
100
AcDbCircle
 10
2.5506143277
 20
5.9694312417
 30
0.0
 40
0.0049999999999993
100
AcDbArc
 50
90.0
 51
165.0
  0
ARC
  5
1F5
330
1F
100
AcDbEntity
  8
0
  6
SLD-SOLID
 62
     7
100
AcDbCircle
 10
2.5506143277
 20
5.9694312417
 30
0.0
 40
0.057
100
AcDbArc
 50
90.0
 51
165.0
  0
LINE
  5
1F6
330
1F
100
AcDbEntity
  8
0
  6
SLD-SOLID
 62
     7
100
AcDbLine
 10
2.0356541863
 20
4.0668926211
 30
0.0
 11
1.9854261266
 21
4.0803512589
 31
0.0
  0
LINE
  5
1F7
330
1F
100
AcDbEntity
  8
0
  6
SLD-SOLID
 62
     7
100
AcDbLine
 10
1.9854261266
 20
4.0803512589
 30
0.0
 11
2.4955568202
 21
5.9841838923
 31
0.0
  0
LINE
  5
1F8
330
1F
100
AcDbEntity
  8
0
  6
SLD-SOLID
 62
     7
100
AcDbLine
 10
2.0356541863
 20
4.0668926211
 30
0.0
 11
2.5457848799
 21
5.9707253278
 31
0.0
  0
LINE
  5
1F9
330
1F
100
AcDbEntity
  8
0
  6
SLD-SOLID
 62
     7
100
AcDbLine
 10
15.9186718352
 20
5.9841838923
 30
0.0
 11
16.4288025288
 21
4.0803512589
 31
0.0
  0
LINE
  5
1FA
330
1F
100
AcDbEntity
  8
0
  6
SLD-SOLID
 62
     7
100
AcDbLine
 10
16.378574469
 20
4.0668926211
 30
0.0
 11
16.4288025288
 21
4.0803512589
 31
0.0
  0
LINE
  5
1FB
330
1F
100
AcDbEntity
  8
0
  6
SLD-SOLID
 62
     7
100
AcDbLine
 10
15.8684437754
 20
5.9707253278
 30
0.0
 11
16.378574469
 21
4.0668926211
 31
0.0
  0
ARC
  5
1FC
330
1F
100
AcDbEntity
  8
0
  6
SLD-SOLID
 62
     7
100
AcDbCircle
 10
2.6321143277
 20
3.3304312417
 30
0.0
 40
0.0149999999999997
100
AcDbArc
 50
90.0
 51
180.0
  0
ARC
  5
1FD
330
1F
100
AcDbEntity
  8
0
  6
SLD-SOLID
 62
     7
100
AcDbCircle
 10
2.6641143277
 20
3.3304312417
 30
0.0
 40
0.015000000000001
100
AcDbArc
 50
0.0
 51
90.0
  0
ARC
  5
1FE
330
1F
100
AcDbEntity
  8
0
  6
SLD-SOLID
 62
     7
100
AcDbCircle
 10
2.6941143277
 20
3.2924312417
 30
0.0
 40
0.0150000000000006
100
AcDbArc
 50
180.0
 51
270.0
  0
ARC
  5
1FF
330
1F
100
AcDbEntity
  8
0
  6
SLD-SOLID
 62
     7
100
AcDbCircle
 10
2.7271143277
 20
3.2924312417
 30
0.0
 40
0.0150000000000006
100
AcDbArc
 50
270.0
 51
0.0
  0
ARC
  5
200
330
1F
100
AcDbEntity
  8
0
  6
SLD-SOLID
 62
     7
100
AcDbCircle
 10
2.7271143277
 20
3.8874312417
 30
0.0
 40
0.0150000000000006
100
AcDbArc
 50
0.0
 51
90.0
  0
ARC
  5
201
330
1F
100
AcDbEntity
  8
0
  6
SLD-SOLID
 62
     7
100
AcDbCircle
 10
2.6321143277
 20
3.9494312417
 30
0.0
 40
0.0150000000000006
100
AcDbArc
 50
90.0
 51
180.0
  0
ARC
  5
202
330
1F
100
AcDbEntity
  8
0
  6
SLD-SOLID
 62
     7
100
AcDbCircle
 10
2.7271143277
 20
3.9794312417
 30
0.0
 40
0.0150000000000006
100
AcDbArc
 50
270.0
 51
0.0
  0
ARC
  5
203
330
1F
100
AcDbEntity
  8
0
  6
SLD-SOLID
 62
     7
100
AcDbCircle
 10
2.9761143277
 20
3.8554312417
 30
0.0
 40
0.0150000000000006
100
AcDbArc
 50
270.0
 51
0.0
  0
ARC
  5
204
330
1F
100
AcDbEntity
  8
0
  6
SLD-SOLID
 62
     7
100
AcDbCircle
 10
2.8191143277
 20
3.8254312417
 30
0.0
 40
0.015000000000001
100
AcDbArc
 50
90.0
 51
180.0
  0
ARC
  5
205
330
1F
100
AcDbEntity
  8
0
  6
SLD-SOLID
 62
     7
100
AcDbCircle
 10
2.8191143277
 20
3.2924312417
 30
0.0
 40
0.015000000000001
100
AcDbArc
 50
180.0
 51
270.0
  0
ARC
  5
206
330
1F
100
AcDbEntity
  8
0
  6
SLD-SOLID
 62
     7
100
AcDbCircle
 10
2.9761143277
 20
3.2624312417
 30
0.0
 40
0.0150000000000006
100
AcDbArc
 50
0.0
 51
90.0
  0
ARC
  5
207
330
1F
100
AcDbEntity
  8
0
  6
SLD-SOLID
 62
     7
100
AcDbCircle
 10
3.0061143277
 20
3.1546444451
 30
0.0
 40
0.0149999999999993
100
AcDbArc
 50
180.0
 51
225.0
  0
ARC
  5
208
330
1F
100
AcDbEntity
  8
0
  6
SLD-SOLID
 62
     7
100
AcDbCircle
 10
3.1153275311
 20
3.0454312417
 30
0.0
 40
0.0149999999999997
100
AcDbArc
 50
225.0
 51
270.0
  0
ARC
  5
209
330
1F
100
AcDbEntity
  8
0
  6
SLD-SOLID
 62
     7
100
AcDbCircle
 10
4.4761143277
 20
3.0154312417
 30
0.0
 40
0.0150000000000006
100
AcDbArc
 50
0.0
 51
90.0
  0
ARC
  5
20A
330
1F
100
AcDbEntity
  8
0
  6
SLD-SOLID
 62
     7
100
AcDbCircle
 10
4.4761143277
 20
2.9834312417
 30
0.0
 40
0.0149999999999997
100
AcDbArc
 50
270.0
 51
0.0
  0
ARC
  5
20B
330
1F
100
AcDbEntity
  8
0
  6
SLD-SOLID
 62
     7
100
AcDbCircle
 10
2.1311143277
 20
2.9834312417
 30
0.0
 40
0.015000000000001
100
AcDbArc
 50
180.0
 51
270.0
  0
ARC
  5
20C
330
1F
100
AcDbEntity
  8
0
  6
SLD-SOLID
 62
     7
100
AcDbCircle
 10
2.1311143277
 20
3.0154312417
 30
0.0
 40
0.015000000000001
100
AcDbArc
 50
90.0
 51
180.0
  0
ARC
  5
20D
330
1F
100
AcDbEntity
  8
0
  6
SLD-SOLID
 62
     7
100
AcDbCircle
 10
2.6621143277
 20
3.0454312417
 30
0.0
 40
0.0150000000000001
100
AcDbArc
 50
270.0
 51
0.0
  0
ARC
  5
20E
330
1F
100
AcDbEntity
  8
0
  6
SLD-SOLID
 62
     7
100
AcDbCircle
 10
2.6921143277
 20
3.0784312417
 30
0.0
 40
0.0150000000000006
100
AcDbArc
 50
90.0
 51
180.0
  0
ARC
  5
20F
330
1F
100
AcDbEntity
  8
0
  6
SLD-SOLID
 62
     7
100
AcDbCircle
 10
2.7241143277
 20
3.0784312417
 30
0.0
 40
0.015000000000001
100
AcDbArc
 50
0.0
 51
90.0
  0
ARC
  5
210
330
1F
100
AcDbEntity
  8
0
  6
SLD-SOLID
 62
     7
100
AcDbCircle
 10
2.7541143277
 20
3.0454312417
 30
0.0
 40
0.0150000000000001
100
AcDbArc
 50
180.0
 51
270.0
  0
ARC
  5
211
330
1F
100
AcDbEntity
  8
0
  6
SLD-SOLID
 62
     7
100
AcDbCircle
 10
2.9441143277
 20
3.1289632043
 30
0.0
 40
0.0149999999999987
100
AcDbArc
 50
180.0
 51
225.0
  0
LINE
  5
212
330
1F
100
AcDbEntity
  8
0
  6
SLD-SOLID
 62
     7
100
AcDbLine
 10
2.9291143184
 20
5.199431242
 30
0.0
 11
2.9291143184
 21
5.0894312386
 31
0.0
  0
LINE
  5
213
330
1F
100
AcDbEntity
  8
0
  6
SLD-SOLID
 62
     7
100
AcDbLine
 10
2.8191144157
 20
5.2144312417
 30
0.0
 11
2.9141145983
 21
5.2144312417
 31
0.0
  0
LINE
  5
214
330
1F
100
AcDbEntity
  8
0
  6
SLD-SOLID
 62
     7
100
AcDbLine
 10
2.804114109
 20
3.917431261
 30
0.0
 11
2.804114109
 21
5.199431242
 31
0.0
  0
LINE
  5
215
330
1F
100
AcDbEntity
  8
0
  6
SLD-SOLID
 62
     7
100
AcDbLine
 10
2.9141145983
 20
3.9024312476
 30
0.0
 11
2.8191144157
 21
3.9024312476
 31
0.0
  0
LINE
  5
216
330
1F
100
AcDbEntity
  8
0
  6
SLD-SOLID
 62
     7
100
AcDbLine
 10
2.9291143184
 20
4.1994312633
 30
0.0
 11
2.9291143184
 21
3.917431261
 31
0.0
  0
LINE
  5
217
330
1F
100
AcDbEntity
  8
0
  6
SLD-SOLID
 62
     7
100
AcDbLine
 10
2.9761145754
 20
4.2144312767
 30
0.0
 11
2.9441140384
 21
4.2144312767
 31
0.0
  0
LINE
  5
218
330
1F
100
AcDbEntity
  8
0
  6
SLD-SOLID
 62
     7
100
AcDbLine
 10
2.9911142955
 20
3.8554312839
 30
0.0
 11
2.9911142955
 21
4.1994312633
 31
0.0
  0
LINE
  5
219
330
1F
100
AcDbEntity
  8
0
  6
SLD-SOLID
 62
     7
100
AcDbLine
 10
2.8191144157
 20
3.8404312705
 30
0.0
 11
2.9761145754
 21
3.8404312705
 31
0.0
  0
LINE
  5
21A
330
1F
100
AcDbEntity
  8
0
  6
SLD-SOLID
 62
     7
100
AcDbLine
 10
2.804114109
 20
3.292431241
 30
0.0
 11
2.804114109
 21
3.8254312571
 31
0.0
  0
LINE
  5
21B
330
1F
100
AcDbEntity
  8
0
  6
SLD-SOLID
 62
     7
100
AcDbLine
 10
2.9761145754
 20
3.2774312276
 30
0.0
 11
2.8191144157
 21
3.2774312276
 31
0.0
  0
LINE
  5
21C
330
1F
100
AcDbEntity
  8
0
  6
SLD-SOLID
 62
     7
100
AcDbLine
 10
2.9911142955
 20
3.1546444861
 30
0.0
 11
2.9911142955
 21
3.2624312143
 31
0.0
  0
LINE
  5
21D
330
1F
100
AcDbEntity
  8
0
  6
SLD-SOLID
 62
     7
100
AcDbLine
 10
3.1047209831
 20
3.0348246303
 30
0.0
 11
2.9955077914
 21
3.1440378219
 31
0.0
  0
LINE
  5
21E
330
1F
100
AcDbEntity
  8
0
  6
SLD-SOLID
 62
     7
100
AcDbLine
 10
4.4761144473
 20
3.030431281
 30
0.0
 11
3.1153277939
 21
3.030431281
 31
0.0
  0
LINE
  5
21F
330
1F
100
AcDbEntity
  8
0
  6
SLD-SOLID
 62
     7
100
AcDbLine
 10
4.4911144607
 20
2.9834311706
 30
0.0
 11
4.4911144607
 21
3.0154312676
 31
0.0
  0
LINE
  5
220
330
1F
100
AcDbEntity
  8
0
  6
SLD-SOLID
 62
     7
100
AcDbLine
 10
2.1311143102
 20
2.9684313039
 30
0.0
 11
4.4761144473
 21
2.9684313039
 31
0.0
  0
LINE
  5
221
330
1F
100
AcDbEntity
  8
0
  6
SLD-SOLID
 62
     7
100
AcDbLine
 10
2.1161145902
 20
3.0154312676
 30
0.0
 11
2.1161145902
 21
2.9834311706
 31
0.0
  0
LINE
  5
222
330
1F
100
AcDbEntity
  8
0
  6
SLD-SOLID
 62
     7
100
AcDbLine
 10
2.6621142561
 20
3.030431281
 30
0.0
 11
2.1311143102
 21
3.030431281
 31
0.0
  0
LINE
  5
223
330
1F
100
AcDbEntity
  8
0
  6
SLD-SOLID
 62
     7
100
AcDbLine
 10
2.6771145628
 20
3.0784312065
 30
0.0
 11
2.6771145628
 21
3.0454312944
 31
0.0
  0
LINE
  5
224
330
1F
100
AcDbEntity
  8
0
  6
SLD-SOLID
 62
     7
100
AcDbLine
 10
2.7241142332
 20
3.0934312199
 30
0.0
 11
2.6921142829
 21
3.0934312199
 31
0.0
  0
LINE
  5
225
330
1F
100
AcDbEntity
  8
0
  6
SLD-SOLID
 62
     7
100
AcDbLine
 10
2.7391145399
 20
3.0454312944
 30
0.0
 11
2.7391145399
 21
3.0784312065
 31
0.0
  0
LINE
  5
226
330
1F
100
AcDbEntity
  8
0
  6
SLD-SOLID
 62
     7
100
AcDbLine
 10
2.9731490097
 20
3.030431281
 30
0.0
 11
2.75411426
 21
3.030431281
 31
0.0
  0
LINE
  5
227
330
1F
100
AcDbEntity
  8
0
  6
SLD-SOLID
 62
     7
100
AcDbLine
 10
2.9291143184
 20
3.2154312505
 30
0.0
 11
2.9291143184
 21
3.1289631561
 31
0.0
  0
LINE
  5
228
330
1F
100
AcDbEntity
  8
0
  6
SLD-SOLID
 62
     7
100
AcDbLine
 10
2.6671143583
 20
3.2154312505
 30
0.0
 11
2.9291143184
 21
3.2154312505
 31
0.0
  0
LINE
  5
229
330
1F
100
AcDbEntity
  8
0
  6
SLD-SOLID
 62
     7
100
AcDbLine
 10
2.6171145093
 20
3.3304312554
 30
0.0
 11
2.6171145093
 21
3.2654312463
 31
0.0
  0
LINE
  5
22A
330
1F
100
AcDbEntity
  8
0
  6
SLD-SOLID
 62
     7
100
AcDbLine
 10
2.6641141797
 20
3.3454312688
 30
0.0
 11
2.6321142293
 21
3.3454312688
 31
0.0
  0
LINE
  5
22B
330
1F
100
AcDbEntity
  8
0
  6
SLD-SOLID
 62
     7
100
AcDbLine
 10
2.6791144864
 20
3.292431241
 30
0.0
 11
2.6791144864
 21
3.3304312554
 31
0.0
  0
LINE
  5
22C
330
1F
100
AcDbEntity
  8
0
  6
SLD-SOLID
 62
     7
100
AcDbLine
 10
2.7271144119
 20
3.2774312276
 30
0.0
 11
2.6941142064
 21
3.2774312276
 31
0.0
  0
LINE
  5
22D
330
1F
100
AcDbEntity
  8
0
  6
SLD-SOLID
 62
     7
100
AcDbLine
 10
2.7421141319
 20
3.8874312342
 30
0.0
 11
2.7421141319
 21
3.292431241
 31
0.0
  0
LINE
  5
22E
330
1F
100
AcDbEntity
  8
0
  6
SLD-SOLID
 62
     7
100
AcDbLine
 10
2.6941142064
 20
3.9024312476
 30
0.0
 11
2.7271144119
 21
3.9024312476
 31
0.0
  0
LINE
  5
22F
330
1F
100
AcDbEntity
  8
0
  6
SLD-SOLID
 62
     7
100
AcDbLine
 10
2.6791144864
 20
3.8494312199
 30
0.0
 11
2.6791144864
 21
3.8874312342
 31
0.0
  0
LINE
  5
230
330
1F
100
AcDbEntity
  8
0
  6
SLD-SOLID
 62
     7
100
AcDbLine
 10
2.6321142293
 20
3.8344312065
 30
0.0
 11
2.6641141797
 21
3.8344312065
 31
0.0
  0
LINE
  5
231
330
1F
100
AcDbEntity
  8
0
  6
SLD-SOLID
 62
     7
100
AcDbLine
 10
2.6171145093
 20
3.9494312113
 30
0.0
 11
2.6171145093
 21
3.8494312199
 31
0.0
  0
LINE
  5
232
330
1F
100
AcDbEntity
  8
0
  6
SLD-SOLID
 62
     7
100
AcDbLine
 10
2.7271144119
 20
3.9644312247
 30
0.0
 11
2.6321142293
 21
3.9644312247
 31
0.0
  0
LINE
  5
233
330
1F
100
AcDbEntity
  8
0
  6
SLD-SOLID
 62
     7
100
AcDbLine
 10
2.7421141319
 20
4.5124312542
 30
0.0
 11
2.7421141319
 21
3.9794312381
 31
0.0
  0
LINE
  5
234
330
1F
100
AcDbEntity
  8
0
  6
SLD-SOLID
 62
     7
100
AcDbLine
 10
2.6171145093
 20
4.5274312675
 30
0.0
 11
2.7271144119
 21
4.5274312675
 31
0.0
  0
LINE
  5
235
330
1F
100
AcDbEntity
  8
0
  6
SLD-SOLID
 62
     7
100
AcDbLine
 10
2.6171145093
 20
4.6424312724
 30
0.0
 11
2.6171145093
 21
4.5274312675
 31
0.0
  0
LINE
  5
236
330
1F
100
AcDbEntity
  8
0
  6
SLD-SOLID
 62
     7
100
AcDbLine
 10
2.6641141797
 20
4.6574312124
 30
0.0
 11
2.6321142293
 21
4.6574312124
 31
0.0
  0
LINE
  5
237
330
1F
100
AcDbEntity
  8
0
  6
SLD-SOLID
 62
     7
100
AcDbLine
 10
2.6791144864
 20
4.604431258
 30
0.0
 11
2.6791144864
 21
4.6424312724
 31
0.0
  0
LINE
  5
238
330
1F
100
AcDbEntity
  8
0
  6
SLD-SOLID
 62
     7
100
AcDbLine
 10
2.7421141319
 20
4.5894312446
 30
0.0
 11
2.6941142064
 21
4.5894312446
 31
0.0
  0
LINE
  5
239
330
1F
100
AcDbEntity
  8
0
  6
SLD-SOLID
 62
     7
100
AcDbLine
 10
2.7421141319
 20
5.199431242
 30
0.0
 11
2.7421141319
 21
4.5894312446
 31
0.0
  0
LINE
  5
23A
330
1F
100
AcDbEntity
  8
0
  6
SLD-SOLID
 62
     7
100
AcDbLine
 10
2.6941142064
 20
5.2144312417
 30
0.0
 11
2.7271144119
 21
5.2144312417
 31
0.0
  0
LINE
  5
23B
330
1F
100
AcDbEntity
  8
0
  6
SLD-SOLID
 62
     7
100
AcDbLine
 10
2.6791144864
 20
5.161431246
 30
0.0
 11
2.6791144864
 21
5.199431242
 31
0.0
  0
LINE
  5
23C
330
1F
100
AcDbEntity
  8
0
  6
SLD-SOLID
 62
     7
100
AcDbLine
 10
2.6321142293
 20
5.1464312418
 30
0.0
 11
2.6641141797
 21
5.1464312418
 31
0.0
  0
LINE
  5
23D
330
1F
100
AcDbEntity
  8
0
  6
SLD-SOLID
 62
     7
100
AcDbLine
 10
2.6171145093
 20
5.2614312421
 30
0.0
 11
2.6171145093
 21
5.161431246
 31
0.0
  0
LINE
  5
23E
330
1F
100
AcDbEntity
  8
0
  6
SLD-SOLID
 62
     7
100
AcDbLine
 10
2.9761145754
 20
5.2764312417
 30
0.0
 11
2.6321142293
 21
5.2764312417
 31
0.0
  0
LINE
  5
23F
330
1F
100
AcDbEntity
  8
0
  6
SLD-SOLID
 62
     7
100
AcDbLine
 10
2.9911142955
 20
5.1044312337
 30
0.0
 11
2.9911142955
 21
5.2614312421
 31
0.0
  0
LINE
  5
240
330
1F
100
AcDbEntity
  8
0
  6
SLD-SOLID
 62
     7
100
AcDbLine
 10
2.9291143184
 20
5.0894312386
 30
0.0
 11
2.9761145754
 21
5.0894312386
 31
0.0
  0
ARC
  5
241
330
1F
100
AcDbEntity
  8
0
  6
SLD-SOLID
 62
     7
100
AcDbCircle
 10
2.6671143277
 20
3.2654312417
 30
0.0
 40
0.0499999999999994
100
AcDbArc
 50
180.0
 51
270.0
  0
ARC
  5
242
330
1F
100
AcDbEntity
  8
0
  6
SLD-SOLID
 62
     7
100
AcDbCircle
 10
2.9731488156
 20
3.0504312417
 30
0.0
 40
0.0200000000000005
100
AcDbArc
 50
270.0
 51
45.0
  0
ARC
  5
243
330
1F
100
AcDbEntity
  8
0
  6
SLD-SOLID
 62
     7
100
AcDbCircle
 10
2.6641143277
 20
5.1614312417
 30
0.0
 40
0.015000000000001
100
AcDbArc
 50
270.0
 51
0.0
  0
ARC
  5
244
330
1F
100
AcDbEntity
  8
0
  6
SLD-SOLID
 62
     7
100
AcDbCircle
 10
2.9761143277
 20
5.1044312417
 30
0.0
 40
0.0150000000000006
100
AcDbArc
 50
270.0
 51
0.0
  0
ARC
  5
245
330
1F
100
AcDbEntity
  8
0
  6
SLD-SOLID
 62
     7
100
AcDbCircle
 10
2.9761143277
 20
5.2614312417
 30
0.0
 40
0.0150000000000006
100
AcDbArc
 50
0.0
 51
90.0
  0
ARC
  5
246
330
1F
100
AcDbEntity
  8
0
  6
SLD-SOLID
 62
     7
100
AcDbCircle
 10
2.6321143277
 20
5.1614312417
 30
0.0
 40
0.0150000000000015
100
AcDbArc
 50
180.0
 51
270.0
  0
ARC
  5
247
330
1F
100
AcDbEntity
  8
0
  6
SLD-SOLID
 62
     7
100
AcDbCircle
 10
2.6321143277
 20
5.2614312417
 30
0.0
 40
0.0149999999999997
100
AcDbArc
 50
90.0
 51
180.0
  0
ARC
  5
248
330
1F
100
AcDbEntity
  8
0
  6
SLD-SOLID
 62
     7
100
AcDbCircle
 10
2.6941143277
 20
5.1994312417
 30
0.0
 40
0.0150000000000006
100
AcDbArc
 50
90.0
 51
180.0
  0
ARC
  5
249
330
1F
100
AcDbEntity
  8
0
  6
SLD-SOLID
 62
     7
100
AcDbCircle
 10
2.8191143277
 20
5.1994312417
 30
0.0
 40
0.015000000000001
100
AcDbArc
 50
90.0
 51
180.0
  0
ARC
  5
24A
330
1F
100
AcDbEntity
  8
0
  6
SLD-SOLID
 62
     7
100
AcDbCircle
 10
2.7271143277
 20
5.1994312417
 30
0.0
 40
0.0150000000000006
100
AcDbArc
 50
0.0
 51
90.0
  0
ARC
  5
24B
330
1F
100
AcDbEntity
  8
0
  6
SLD-SOLID
 62
     7
100
AcDbCircle
 10
2.9141143277
 20
5.1994312417
 30
0.0
 40
0.015000000000001
100
AcDbArc
 50
0.0
 51
90.0
  0
ARC
  5
24C
330
1F
100
AcDbEntity
  8
0
  6
SLD-SOLID
 62
     7
100
AcDbCircle
 10
2.6321143277
 20
4.6424312417
 30
0.0
 40
0.0150000000000006
100
AcDbArc
 50
90.0
 51
180.0
  0
ARC
  5
24D
330
1F
100
AcDbEntity
  8
0
  6
SLD-SOLID
 62
     7
100
AcDbCircle
 10
2.6641143277
 20
4.6424312417
 30
0.0
 40
0.015000000000001
100
AcDbArc
 50
0.0
 51
90.0
  0
ARC
  5
24E
330
1F
100
AcDbEntity
  8
0
  6
SLD-SOLID
 62
     7
100
AcDbCircle
 10
2.6941143277
 20
4.6044312417
 30
0.0
 40
0.0150000000000006
100
AcDbArc
 50
180.0
 51
270.0
  0
ARC
  5
24F
330
1F
100
AcDbEntity
  8
0
  6
SLD-SOLID
 62
     7
100
AcDbCircle
 10
2.7271143277
 20
4.5124312417
 30
0.0
 40
0.0150000000000006
100
AcDbArc
 50
0.0
 51
90.0
  0
ARC
  5
250
330
1F
100
AcDbEntity
  8
0
  6
SLD-SOLID
 62
     7
100
AcDbCircle
 10
2.9761143277
 20
4.1994312417
 30
0.0
 40
0.0150000000000006
100
AcDbArc
 50
0.0
 51
90.0
  0
ARC
  5
251
330
1F
100
AcDbEntity
  8
0
  6
SLD-SOLID
 62
     7
100
AcDbCircle
 10
2.9441143277
 20
4.1994312417
 30
0.0
 40
0.0150000000000006
100
AcDbArc
 50
90.0
 51
180.0
  0
ARC
  5
252
330
1F
100
AcDbEntity
  8
0
  6
SLD-SOLID
 62
     7
100
AcDbCircle
 10
2.9141143277
 20
3.9174312417
 30
0.0
 40
0.015000000000001
100
AcDbArc
 50
270.0
 51
0.0
  0
ARC
  5
253
330
1F
100
AcDbEntity
  8
0
  6
SLD-SOLID
 62
     7
100
AcDbCircle
 10
2.8191143277
 20
3.9174312417
 30
0.0
 40
0.015000000000001
100
AcDbArc
 50
180.0
 51
270.0
  0
ARC
  5
254
330
1F
100
AcDbEntity
  8
0
  6
SLD-SOLID
 62
     7
100
AcDbCircle
 10
2.6941143277
 20
3.8874312417
 30
0.0
 40
0.0150000000000006
100
AcDbArc
 50
90.0
 51
180.0
  0
ARC
  5
255
330
1F
100
AcDbEntity
  8
0
  6
SLD-SOLID
 62
     7
100
AcDbCircle
 10
2.6321143277
 20
3.8494312417
 30
0.0
 40
0.0149999999999997
100
AcDbArc
 50
180.0
 51
270.0
  0
ARC
  5
256
330
1F
100
AcDbEntity
  8
0
  6
SLD-SOLID
 62
     7
100
AcDbCircle
 10
2.6641143277
 20
3.8494312417
 30
0.0
 40
0.015000000000001
100
AcDbArc
 50
270.0
 51
0.0
  0
LINE
  5
257
330
1F
100
AcDbEntity
  8
0
  6
SLD-SOLID
 62
     7
100
AcDbLine
 10
2.9335078143
 20
3.1183566386
 30
0.0
 11
2.987291033
 21
3.0645734199
 31
0.0
  0
LINE
  5
258
330
1F
100
AcDbEntity
  8
0
  6
SLD-SOLID
 62
     7
100
AcDbLine
 10
15.485114337
 20
3.2154312505
 30
0.0
 11
15.485114337
 21
3.1289631561
 31
0.0
  0
ARC
  5
259
330
1F
100
AcDbEntity
  8
0
  6
SLD-SOLID
 62
     7
100
AcDbCircle
 10
15.4701143277
 20
3.1289632043
 30
0.0
 40
0.0149999999999988
100
AcDbArc
 50
315.0
 51
0.0
  0
LINE
  5
25A
330
1F
100
AcDbEntity
  8
0
  6
SLD-SOLID
 62
     7
100
AcDbLine
 10
15.4807208411
 20
3.1183566386
 30
0.0
 11
15.4269376224
 21
3.0645734199
 31
0.0
  0
ARC
  5
25B
330
1F
100
AcDbEntity
  8
0
  6
SLD-SOLID
 62
     7
100
AcDbCircle
 10
15.4410798398
 20
3.0504312417
 30
0.0
 40
0.0200000000000005
100
AcDbArc
 50
135.0
 51
270.0
  0
LINE
  5
25C
330
1F
100
AcDbEntity
  8
0
  6
SLD-SOLID
 62
     7
100
AcDbLine
 10
15.4410796457
 20
3.030431281
 30
0.0
 11
15.6601143954
 21
3.030431281
 31
0.0
  0
ARC
  5
25D
330
1F
100
AcDbEntity
  8
0
  6
SLD-SOLID
 62
     7
100
AcDbCircle
 10
15.6601143277
 20
3.0454312417
 30
0.0
 40
0.0150000000000001
100
AcDbArc
 50
270.0
 51
0.0
  0
LINE
  5
25E
330
1F
100
AcDbEntity
  8
0
  6
SLD-SOLID
 62
     7
100
AcDbLine
 10
15.6751141155
 20
3.0454312944
 30
0.0
 11
15.6751141155
 21
3.0784312065
 31
0.0
  0
ARC
  5
25F
330
1F
100
AcDbEntity
  8
0
  6
SLD-SOLID
 62
     7
100
AcDbCircle
 10
15.6901143277
 20
3.0784312417
 30
0.0
 40
0.0150000000000023
100
AcDbArc
 50
90.0
 51
180.0
  0
LINE
  5
260
330
1F
100
AcDbEntity
  8
0
  6
SLD-SOLID
 62
     7
100
AcDbLine
 10
15.6901144222
 20
3.0934312199
 30
0.0
 11
15.7221143725
 21
3.0934312199
 31
0.0
  0
ARC
  5
261
330
1F
100
AcDbEntity
  8
0
  6
SLD-SOLID
 62
     7
100
AcDbCircle
 10
15.7221143277
 20
3.0784312417
 30
0.0
 40
0.0150000000000001
100
AcDbArc
 50
0.0
 51
90.0
  0
LINE
  5
262
330
1F
100
AcDbEntity
  8
0
  6
SLD-SOLID
 62
     7
100
AcDbLine
 10
15.7371140926
 20
3.0784312065
 30
0.0
 11
15.7371140926
 21
3.0454312944
 31
0.0
  0
ARC
  5
263
330
1F
100
AcDbEntity
  8
0
  6
SLD-SOLID
 62
     7
100
AcDbCircle
 10
15.7521143277
 20
3.0454312417
 30
0.0
 40
0.0150000000000041
100
AcDbArc
 50
180.0
 51
270.0
  0
LINE
  5
264
330
1F
100
AcDbEntity
  8
0
  6
SLD-SOLID
 62
     7
100
AcDbLine
 10
15.7521143993
 20
3.030431281
 30
0.0
 11
16.2831143451
 21
3.030431281
 31
0.0
  0
ARC
  5
265
330
1F
100
AcDbEntity
  8
0
  6
SLD-SOLID
 62
     7
100
AcDbCircle
 10
16.2831143277
 20
3.0154312417
 30
0.0
 40
0.0150000000000041
100
AcDbArc
 50
0.0
 51
90.0
  0
LINE
  5
266
330
1F
100
AcDbEntity
  8
0
  6
SLD-SOLID
 62
     7
100
AcDbLine
 10
16.2981140652
 20
3.0154312676
 30
0.0
 11
16.2981140652
 21
2.9834311706
 31
0.0
  0
ARC
  5
267
330
1F
100
AcDbEntity
  8
0
  6
SLD-SOLID
 62
     7
100
AcDbCircle
 10
16.2831143277
 20
2.9834312417
 30
0.0
 40
0.0150000000000041
100
AcDbArc
 50
270.0
 51
0.0
  0
LINE
  5
268
330
1F
100
AcDbEntity
  8
0
  6
SLD-SOLID
 62
     7
100
AcDbLine
 10
16.2831143451
 20
2.9684313039
 30
0.0
 11
13.9381142081
 21
2.9684313039
 31
0.0
  0
ARC
  5
269
330
1F
100
AcDbEntity
  8
0
  6
SLD-SOLID
 62
     7
100
AcDbCircle
 10
13.9381143277
 20
2.9834312417
 30
0.0
 40
0.0150000000000006
100
AcDbArc
 50
180.0
 51
270.0
  0
LINE
  5
26A
330
1F
100
AcDbEntity
  8
0
  6
SLD-SOLID
 62
     7
100
AcDbLine
 10
13.9231141947
 20
2.9834311706
 30
0.0
 11
13.9231141947
 21
3.0154312676
 31
0.0
  0
ARC
  5
26B
330
1F
100
AcDbEntity
  8
0
  6
SLD-SOLID
 62
     7
100
AcDbCircle
 10
13.9381143277
 20
3.0154312417
 30
0.0
 40
0.0150000000000006
100
AcDbArc
 50
90.0
 51
180.0
  0
LINE
  5
26C
330
1F
100
AcDbEntity
  8
0
  6
SLD-SOLID
 62
     7
100
AcDbLine
 10
13.9381142081
 20
3.030431281
 30
0.0
 11
15.2989008615
 21
3.030431281
 31
0.0
  0
ARC
  5
26D
330
1F
100
AcDbEntity
  8
0
  6
SLD-SOLID
 62
     7
100
AcDbCircle
 10
15.2989011243
 20
3.0454312417
 30
0.0
 40
0.0149999999999997
100
AcDbArc
 50
270.0
 51
315.0
  0
LINE
  5
26E
330
1F
100
AcDbEntity
  8
0
  6
SLD-SOLID
 62
     7
100
AcDbLine
 10
15.3095076723
 20
3.0348246303
 30
0.0
 11
15.418720864
 21
3.1440378219
 31
0.0
  0
ARC
  5
26F
330
1F
100
AcDbEntity
  8
0
  6
SLD-SOLID
 62
     7
100
AcDbCircle
 10
15.4081143277
 20
3.1546444451
 30
0.0
 40
0.014999999999999
100
AcDbArc
 50
315.0
 51
0.0
  0
LINE
  5
270
330
1F
100
AcDbEntity
  8
0
  6
SLD-SOLID
 62
     7
100
AcDbLine
 10
15.4231143599
 20
3.1546444861
 30
0.0
 11
15.4231143599
 21
3.2624312143
 31
0.0
  0
ARC
  5
271
330
1F
100
AcDbEntity
  8
0
  6
SLD-SOLID
 62
     7
100
AcDbCircle
 10
15.4381143277
 20
3.2624312417
 30
0.0
 40
0.0150000000000001
100
AcDbArc
 50
90.0
 51
180.0
  0
LINE
  5
272
330
1F
100
AcDbEntity
  8
0
  6
SLD-SOLID
 62
     7
100
AcDbLine
 10
15.43811408
 20
3.2774312276
 30
0.0
 11
15.5951142396
 21
3.2774312276
 31
0.0
  0
ARC
  5
273
330
1F
100
AcDbEntity
  8
0
  6
SLD-SOLID
 62
     7
100
AcDbCircle
 10
15.5951143277
 20
3.2924312417
 30
0.0
 40
0.0149999999999997
100
AcDbArc
 50
270.0
 51
0.0
  0
LINE
  5
274
330
1F
100
AcDbEntity
  8
0
  6
SLD-SOLID
 62
     7
100
AcDbLine
 10
15.6101145464
 20
3.292431241
 30
0.0
 11
15.6101145464
 21
3.8254312571
 31
0.0
  0
ARC
  5
275
330
1F
100
AcDbEntity
  8
0
  6
SLD-SOLID
 62
     7
100
AcDbCircle
 10
15.5951143277
 20
3.8254312417
 30
0.0
 40
0.0149999999999997
100
AcDbArc
 50
0.0
 51
90.0
  0
LINE
  5
276
330
1F
100
AcDbEntity
  8
0
  6
SLD-SOLID
 62
     7
100
AcDbLine
 10
15.5951142396
 20
3.8404312705
 30
0.0
 11
15.43811408
 21
3.8404312705
 31
0.0
  0
ARC
  5
277
330
1F
100
AcDbEntity
  8
0
  6
SLD-SOLID
 62
     7
100
AcDbCircle
 10
15.4381143277
 20
3.8554312417
 30
0.0
 40
0.0150000000000006
100
AcDbArc
 50
180.0
 51
270.0
  0
LINE
  5
278
330
1F
100
AcDbEntity
  8
0
  6
SLD-SOLID
 62
     7
100
AcDbLine
 10
15.4231143599
 20
3.8554312839
 30
0.0
 11
15.4231143599
 21
4.1994312633
 31
0.0
  0
ARC
  5
279
330
1F
100
AcDbEntity
  8
0
  6
SLD-SOLID
 62
     7
100
AcDbCircle
 10
15.4381143277
 20
4.1994312417
 30
0.0
 40
0.0150000000000006
100
AcDbArc
 50
90.0
 51
180.0
  0
LINE
  5
27A
330
1F
100
AcDbEntity
  8
0
  6
SLD-SOLID
 62
     7
100
AcDbLine
 10
15.43811408
 20
4.2144312767
 30
0.0
 11
15.470114617
 21
4.2144312767
 31
0.0
  0
ARC
  5
27B
330
1F
100
AcDbEntity
  8
0
  6
SLD-SOLID
 62
     7
100
AcDbCircle
 10
15.4701143277
 20
4.1994312417
 30
0.0
 40
0.0150000000000006
100
AcDbArc
 50
0.0
 51
90.0
  0
LINE
  5
27C
330
1F
100
AcDbEntity
  8
0
  6
SLD-SOLID
 62
     7
100
AcDbLine
 10
15.485114337
 20
4.1994312633
 30
0.0
 11
15.485114337
 21
3.917431261
 31
0.0
  0
ARC
  5
27D
330
1F
100
AcDbEntity
  8
0
  6
SLD-SOLID
 62
     7
100
AcDbCircle
 10
15.5001143277
 20
3.9174312417
 30
0.0
 40
0.0150000000000023
100
AcDbArc
 50
180.0
 51
270.0
  0
LINE
  5
27E
330
1F
100
AcDbEntity
  8
0
  6
SLD-SOLID
 62
     7
100
AcDbLine
 10
15.5001140571
 20
3.9024312476
 30
0.0
 11
15.5951142396
 21
3.9024312476
 31
0.0
  0
ARC
  5
27F
330
1F
100
AcDbEntity
  8
0
  6
SLD-SOLID
 62
     7
100
AcDbCircle
 10
15.5951143277
 20
3.9174312417
 30
0.0
 40
0.0150000000000001
100
AcDbArc
 50
270.0
 51
0.0
  0
LINE
  5
280
330
1F
100
AcDbEntity
  8
0
  6
SLD-SOLID
 62
     7
100
AcDbLine
 10
15.6101145464
 20
3.917431261
 30
0.0
 11
15.6101145464
 21
5.199431242
 31
0.0
  0
ARC
  5
281
330
1F
100
AcDbEntity
  8
0
  6
SLD-SOLID
 62
     7
100
AcDbCircle
 10
15.5951143277
 20
5.1994312417
 30
0.0
 40
0.0149999999999997
100
AcDbArc
 50
0.0
 51
90.0
  0
LINE
  5
282
330
1F
100
AcDbEntity
  8
0
  6
SLD-SOLID
 62
     7
100
AcDbLine
 10
15.5951142396
 20
5.2144312417
 30
0.0
 11
15.5001140571
 21
5.2144312417
 31
0.0
  0
ARC
  5
283
330
1F
100
AcDbEntity
  8
0
  6
SLD-SOLID
 62
     7
100
AcDbCircle
 10
15.5001143277
 20
5.1994312417
 30
0.0
 40
0.0150000000000023
100
AcDbArc
 50
90.0
 51
180.0
  0
LINE
  5
284
330
1F
100
AcDbEntity
  8
0
  6
SLD-SOLID
 62
     7
100
AcDbLine
 10
15.485114337
 20
5.0894312386
 30
0.0
 11
15.43811408
 21
5.0894312386
 31
0.0
  0
ARC
  5
285
330
1F
100
AcDbEntity
  8
0
  6
SLD-SOLID
 62
     7
100
AcDbCircle
 10
15.4381143277
 20
5.1044312417
 30
0.0
 40
0.0149999999999997
100
AcDbArc
 50
180.0
 51
270.0
  0
LINE
  5
286
330
1F
100
AcDbEntity
  8
0
  6
SLD-SOLID
 62
     7
100
AcDbLine
 10
15.4231143599
 20
5.1044312337
 30
0.0
 11
15.4231143599
 21
5.2614312421
 31
0.0
  0
ARC
  5
287
330
1F
100
AcDbEntity
  8
0
  6
SLD-SOLID
 62
     7
100
AcDbCircle
 10
15.4381143277
 20
5.2614312417
 30
0.0
 40
0.0149999999999997
100
AcDbArc
 50
90.0
 51
180.0
  0
LINE
  5
288
330
1F
100
AcDbEntity
  8
0
  6
SLD-SOLID
 62
     7
100
AcDbLine
 10
15.43811408
 20
5.2764312417
 30
0.0
 11
15.7821144261
 21
5.2764312417
 31
0.0
  0
ARC
  5
289
330
1F
100
AcDbEntity
  8
0
  6
SLD-SOLID
 62
     7
100
AcDbCircle
 10
15.7821143277
 20
5.2614312417
 30
0.0
 40
0.0150000000000041
100
AcDbArc
 50
0.0
 51
90.0
  0
LINE
  5
28A
330
1F
100
AcDbEntity
  8
0
  6
SLD-SOLID
 62
     7
100
AcDbLine
 10
15.7971141461
 20
5.2614312421
 30
0.0
 11
15.7971141461
 21
5.161431246
 31
0.0
  0
ARC
  5
28B
330
1F
100
AcDbEntity
  8
0
  6
SLD-SOLID
 62
     7
100
AcDbCircle
 10
15.7821143277
 20
5.1614312417
 30
0.0
 40
0.0150000000000041
100
AcDbArc
 50
270.0
 51
0.0
  0
LINE
  5
28C
330
1F
100
AcDbEntity
  8
0
  6
SLD-SOLID
 62
     7
100
AcDbLine
 10
15.7821144261
 20
5.1464312418
 30
0.0
 11
15.7501144757
 21
5.1464312418
 31
0.0
  0
ARC
  5
28D
330
1F
100
AcDbEntity
  8
0
  6
SLD-SOLID
 62
     7
100
AcDbCircle
 10
15.7501143277
 20
5.1614312417
 30
0.0
 40
0.0149999999999997
100
AcDbArc
 50
180.0
 51
270.0
  0
LINE
  5
28E
330
1F
100
AcDbEntity
  8
0
  6
SLD-SOLID
 62
     7
100
AcDbLine
 10
15.735114169
 20
5.161431246
 30
0.0
 11
15.735114169
 21
5.199431242
 31
0.0
  0
ARC
  5
28F
330
1F
100
AcDbEntity
  8
0
  6
SLD-SOLID
 62
     7
100
AcDbCircle
 10
15.7201143277
 20
5.1994312417
 30
0.0
 40
0.0150000000000041
100
AcDbArc
 50
0.0
 51
90.0
  0
LINE
  5
290
330
1F
100
AcDbEntity
  8
0
  6
SLD-SOLID
 62
     7
100
AcDbLine
 10
15.720114449
 20
5.2144312417
 30
0.0
 11
15.6871142435
 21
5.2144312417
 31
0.0
  0
ARC
  5
291
330
1F
100
AcDbEntity
  8
0
  6
SLD-SOLID
 62
     7
100
AcDbCircle
 10
15.6871143277
 20
5.1994312417
 30
0.0
 40
0.0149999999999997
100
AcDbArc
 50
90.0
 51
180.0
  0
LINE
  5
292
330
1F
100
AcDbEntity
  8
0
  6
SLD-SOLID
 62
     7
100
AcDbLine
 10
15.6721145235
 20
5.199431242
 30
0.0
 11
15.6721145235
 21
4.5894312446
 31
0.0
  0
LINE
  5
293
330
1F
100
AcDbEntity
  8
0
  6
SLD-SOLID
 62
     7
100
AcDbLine
 10
15.6721145235
 20
4.5894312446
 30
0.0
 11
15.720114449
 21
4.5894312446
 31
0.0
  0
ARC
  5
294
330
1F
100
AcDbEntity
  8
0
  6
SLD-SOLID
 62
     7
100
AcDbCircle
 10
15.7201143277
 20
4.6044312417
 30
0.0
 40
0.0150000000000041
100
AcDbArc
 50
270.0
 51
0.0
  0
LINE
  5
295
330
1F
100
AcDbEntity
  8
0
  6
SLD-SOLID
 62
     7
100
AcDbLine
 10
15.735114169
 20
4.604431258
 30
0.0
 11
15.735114169
 21
4.6424312724
 31
0.0
  0
ARC
  5
296
330
1F
100
AcDbEntity
  8
0
  6
SLD-SOLID
 62
     7
100
AcDbCircle
 10
15.7501143277
 20
4.6424312417
 30
0.0
 40
0.0149999999999997
100
AcDbArc
 50
90.0
 51
180.0
  0
LINE
  5
297
330
1F
100
AcDbEntity
  8
0
  6
SLD-SOLID
 62
     7
100
AcDbLine
 10
15.7501144757
 20
4.6574312124
 30
0.0
 11
15.7821144261
 21
4.6574312124
 31
0.0
  0
ARC
  5
298
330
1F
100
AcDbEntity
  8
0
  6
SLD-SOLID
 62
     7
100
AcDbCircle
 10
15.7821143277
 20
4.6424312417
 30
0.0
 40
0.0150000000000041
100
AcDbArc
 50
0.0
 51
90.0
  0
LINE
  5
299
330
1F
100
AcDbEntity
  8
0
  6
SLD-SOLID
 62
     7
100
AcDbLine
 10
15.7971141461
 20
4.6424312724
 30
0.0
 11
15.7971141461
 21
4.5274312675
 31
0.0
  0
LINE
  5
29A
330
1F
100
AcDbEntity
  8
0
  6
SLD-SOLID
 62
     7
100
AcDbLine
 10
15.7971141461
 20
4.5274312675
 30
0.0
 11
15.6871142435
 21
4.5274312675
 31
0.0
  0
ARC
  5
29B
330
1F
100
AcDbEntity
  8
0
  6
SLD-SOLID
 62
     7
100
AcDbCircle
 10
15.6871143277
 20
4.5124312417
 30
0.0
 40
0.0149999999999997
100
AcDbArc
 50
90.0
 51
180.0
  0
LINE
  5
29C
330
1F
100
AcDbEntity
  8
0
  6
SLD-SOLID
 62
     7
100
AcDbLine
 10
15.6721145235
 20
4.5124312542
 30
0.0
 11
15.6721145235
 21
3.9794312381
 31
0.0
  0
ARC
  5
29D
330
1F
100
AcDbEntity
  8
0
  6
SLD-SOLID
 62
     7
100
AcDbCircle
 10
15.6871143277
 20
3.9794312417
 30
0.0
 40
0.0149999999999997
100
AcDbArc
 50
180.0
 51
270.0
  0
LINE
  5
29E
330
1F
100
AcDbEntity
  8
0
  6
SLD-SOLID
 62
     7
100
AcDbLine
 10
15.6871142435
 20
3.9644312247
 30
0.0
 11
15.7821144261
 21
3.9644312247
 31
0.0
  0
ARC
  5
29F
330
1F
100
AcDbEntity
  8
0
  6
SLD-SOLID
 62
     7
100
AcDbCircle
 10
15.7821143277
 20
3.9494312417
 30
0.0
 40
0.0150000000000041
100
AcDbArc
 50
0.0
 51
90.0
  0
LINE
  5
2A0
330
1F
100
AcDbEntity
  8
0
  6
SLD-SOLID
 62
     7
100
AcDbLine
 10
15.7971141461
 20
3.9494312113
 30
0.0
 11
15.7971141461
 21
3.8494312199
 31
0.0
  0
ARC
  5
2A1
330
1F
100
AcDbEntity
  8
0
  6
SLD-SOLID
 62
     7
100
AcDbCircle
 10
15.7821143277
 20
3.8494312417
 30
0.0
 40
0.0150000000000041
100
AcDbArc
 50
270.0
 51
0.0
  0
LINE
  5
2A2
330
1F
100
AcDbEntity
  8
0
  6
SLD-SOLID
 62
     7
100
AcDbLine
 10
15.7821144261
 20
3.8344312065
 30
0.0
 11
15.7501144757
 21
3.8344312065
 31
0.0
  0
ARC
  5
2A3
330
1F
100
AcDbEntity
  8
0
  6
SLD-SOLID
 62
     7
100
AcDbCircle
 10
15.7501143277
 20
3.8494312417
 30
0.0
 40
0.0149999999999997
100
AcDbArc
 50
180.0
 51
270.0
  0
LINE
  5
2A4
330
1F
100
AcDbEntity
  8
0
  6
SLD-SOLID
 62
     7
100
AcDbLine
 10
15.735114169
 20
3.8494312199
 30
0.0
 11
15.735114169
 21
3.8874312342
 31
0.0
  0
ARC
  5
2A5
330
1F
100
AcDbEntity
  8
0
  6
SLD-SOLID
 62
     7
100
AcDbCircle
 10
15.7201143277
 20
3.8874312417
 30
0.0
 40
0.0150000000000041
100
AcDbArc
 50
0.0
 51
90.0
  0
LINE
  5
2A6
330
1F
100
AcDbEntity
  8
0
  6
SLD-SOLID
 62
     7
100
AcDbLine
 10
15.720114449
 20
3.9024312476
 30
0.0
 11
15.6871142435
 21
3.9024312476
 31
0.0
  0
ARC
  5
2A7
330
1F
100
AcDbEntity
  8
0
  6
SLD-SOLID
 62
     7
100
AcDbCircle
 10
15.6871143277
 20
3.8874312417
 30
0.0
 40
0.0150000000000001
100
AcDbArc
 50
90.0
 51
180.0
  0
LINE
  5
2A8
330
1F
100
AcDbEntity
  8
0
  6
SLD-SOLID
 62
     7
100
AcDbLine
 10
15.6721145235
 20
3.8874312342
 30
0.0
 11
15.6721145235
 21
3.292431241
 31
0.0
  0
ARC
  5
2A9
330
1F
100
AcDbEntity
  8
0
  6
SLD-SOLID
 62
     7
100
AcDbCircle
 10
15.6871143277
 20
3.2924312417
 30
0.0
 40
0.0149999999999997
100
AcDbArc
 50
180.0
 51
270.0
  0
LINE
  5
2AA
330
1F
100
AcDbEntity
  8
0
  6
SLD-SOLID
 62
     7
100
AcDbLine
 10
15.6871142435
 20
3.2774312276
 30
0.0
 11
15.720114449
 21
3.2774312276
 31
0.0
  0
ARC
  5
2AB
330
1F
100
AcDbEntity
  8
0
  6
SLD-SOLID
 62
     7
100
AcDbCircle
 10
15.7201143277
 20
3.2924312417
 30
0.0
 40
0.0150000000000041
100
AcDbArc
 50
270.0
 51
0.0
  0
LINE
  5
2AC
330
1F
100
AcDbEntity
  8
0
  6
SLD-SOLID
 62
     7
100
AcDbLine
 10
15.735114169
 20
3.292431241
 30
0.0
 11
15.735114169
 21
3.3304312554
 31
0.0
  0
ARC
  5
2AD
330
1F
100
AcDbEntity
  8
0
  6
SLD-SOLID
 62
     7
100
AcDbCircle
 10
15.7501143277
 20
3.3304312417
 30
0.0
 40
0.0149999999999997
100
AcDbArc
 50
90.0
 51
180.0
  0
LINE
  5
2AE
330
1F
100
AcDbEntity
  8
0
  6
SLD-SOLID
 62
     7
100
AcDbLine
 10
15.7501144757
 20
3.3454312688
 30
0.0
 11
15.7821144261
 21
3.3454312688
 31
0.0
  0
ARC
  5
2AF
330
1F
100
AcDbEntity
  8
0
  6
SLD-SOLID
 62
     7
100
AcDbCircle
 10
15.7821143277
 20
3.3304312417
 30
0.0
 40
0.0150000000000041
100
AcDbArc
 50
0.0
 51
90.0
  0
LINE
  5
2B0
330
1F
100
AcDbEntity
  8
0
  6
SLD-SOLID
 62
     7
100
AcDbLine
 10
15.7971141461
 20
3.3304312554
 30
0.0
 11
15.7971141461
 21
3.2654312463
 31
0.0
  0
ARC
  5
2B1
330
1F
100
AcDbEntity
  8
0
  6
SLD-SOLID
 62
     7
100
AcDbCircle
 10
15.7471143277
 20
3.2654312417
 30
0.0
 40
0.0500000000000007
100
AcDbArc
 50
270.0
 51
0.0
  0
LINE
  5
2B2
330
1F
100
AcDbEntity
  8
0
  6
SLD-SOLID
 62
     7
100
AcDbLine
 10
15.7471142971
 20
3.2154312505
 30
0.0
 11
15.485114337
 21
3.2154312505
 31
0.0
  0
LINE
  5
2B3
330
1F
100
AcDbEntity
  8
0
  6
SLD-SOLID
 62
     7
100
AcDbLine
 10
15.485114337
 20
5.199431242
 30
0.0
 11
15.485114337
 21
5.0894312386
 31
0.0
  0
LINE
  5
2B4
330
1F
100
AcDbEntity
  8
0
  6
SLD-SOLID
 62
     7
100
AcDbLine
 10
10.8381143262
 20
3.0766812001
 30
0.0
 11
10.9016143927
 21
3.0766812001
 31
0.0
  0
LINE
  5
2B5
330
1F
100
AcDbEntity
  8
0
  6
SLD-SOLID
 62
     7
100
AcDbLine
 10
10.8381143262
 20
4.5522243211
 30
0.0
 11
10.8381143262
 21
3.0766812001
 31
0.0
  0
ARC
  5
2B6
330
1F
100
AcDbEntity
  8
0
  6
SLD-SOLID
 62
     7
100
AcDbCircle
 10
10.8221143277
 20
4.5522243198
 30
0.0
 40
0.0160000000000005
100
AcDbArc
 50
0.0
 51
108.825987749
  0
ARC
  5
2B7
330
1F
100
AcDbEntity
  8
0
  6
SLD-SOLID
 62
     7
100
AcDbCircle
 10
10.7766143277
 20
4.6856812417
 30
0.0
 40
0.1250000000000007
100
AcDbArc
 50
272.955708677
 51
288.825987749
  0
ARC
  5
2B8
330
1F
100
AcDbEntity
  8
0
  6
SLD-SOLID
 62
     7
100
AcDbCircle
 10
10.781422668
 20
4.5925552928
 30
0.0
 40
0.0317500000000004
100
AcDbArc
 50
92.955708677
 51
272.955708677
  0
ARC
  5
2B9
330
1F
100
AcDbEntity
  8
0
  6
SLD-SOLID
 62
     7
100
AcDbCircle
 10
10.6834883788
 20
4.690489582
 30
0.0
 40
0.0317500000000012
100
AcDbArc
 50
177.044291323
 51
357.044291323
  0
ARC
  5
2BA
330
1F
100
AcDbEntity
  8
0
  6
SLD-SOLID
 62
     7
100
AcDbCircle
 10
10.7766143277
 20
4.6856812417
 30
0.0
 40
0.125
100
AcDbArc
 50
0.0
 51
177.044291323
  0
LINE
  5
2BB
330
1F
100
AcDbEntity
  8
0
  6
SLD-SOLID
 62
     7
100
AcDbLine
 10
10.9016143927
 20
3.0766812001
 30
0.0
 11
10.9016143927
 21
4.6856812328
 31
0.0
  0
ARC
  5
2BC
330
1F
100
AcDbEntity
  8
0
  6
SLD-SOLID
 62
     7
100
AcDbCircle
 10
10.7766143277
 20
4.6856812417
 30
0.0
 40
0.0615000000000009
100
AcDbArc
 50
272.955708677
 51
177.044291323
  0
ARC
  5
2BD
330
1F
100
AcDbEntity
  8
0
  6
SLD-SOLID
 62
     7
100
AcDbCircle
 10
7.6376143277
 20
4.6856812417
 30
0.0
 40
0.1250000000000008
100
AcDbArc
 50
251.174012251
 51
267.044291323
  0
ARC
  5
2BE
330
1F
100
AcDbEntity
  8
0
  6
SLD-SOLID
 62
     7
100
AcDbCircle
 10
7.5921143277
 20
4.5522243198
 30
0.0
 40
0.0160000000000008
100
AcDbArc
 50
71.174012251
 51
180.0
  0
ARC
  5
2BF
330
1F
100
AcDbEntity
  8
0
  6
SLD-SOLID
 62
     7
100
AcDbCircle
 10
7.6328059874
 20
4.5925552928
 30
0.0
 40
0.0317500000000004
100
AcDbArc
 50
267.044291323
 51
87.044291323
  0
ARC
  5
2C0
330
1F
100
AcDbEntity
  8
0
  6
SLD-SOLID
 62
     7
100
AcDbCircle
 10
7.6376143277
 20
4.6856812417
 30
0.0
 40
0.0615
100
AcDbArc
 50
2.955708677
 51
267.044291323
  0
ARC
  5
2C1
330
1F
100
AcDbEntity
  8
0
  6
SLD-SOLID
 62
     7
100
AcDbCircle
 10
7.7307402766
 20
4.690489582
 30
0.0
 40
0.0317500000000004
100
AcDbArc
 50
182.955708677
 51
2.955708677
  0
ARC
  5
2C2
330
1F
100
AcDbEntity
  8
0
  6
SLD-SOLID
 62
     7
100
AcDbCircle
 10
7.6376143277
 20
4.6856812417
 30
0.0
 40
0.1250000000000009
100
AcDbArc
 50
2.955708677
 51
180.0
  0
LINE
  5
2C3
330
1F
100
AcDbEntity
  8
0
  6
SLD-SOLID
 62
     7
100
AcDbLine
 10
7.5126142627
 20
3.0766812001
 30
0.0
 11
7.5126142627
 21
4.6856812328
 31
0.0
  0
LINE
  5
2C4
330
1F
100
AcDbEntity
  8
0
  6
SLD-SOLID
 62
     7
100
AcDbLine
 10
7.5761143291
 20
3.0766812001
 30
0.0
 11
7.5126142627
 21
3.0766812001
 31
0.0
  0
LINE
  5
2C5
330
1F
100
AcDbEntity
  8
0
  6
SLD-SOLID
 62
     7
100
AcDbLine
 10
7.5761143291
 20
4.5522243211
 30
0.0
 11
7.5761143291
 21
3.0766812001
 31
0.0
  0
ARC
  5
2C6
330
1F
100
AcDbEntity
  8
0
  6
SLD-SOLID
 62
     7
100
AcDbCircle
 10
4.3426143277
 20
4.6856812417
 30
0.0
 40
0.0615000000000001
100
AcDbArc
 50
272.955708677
 51
177.044291323
  0
ARC
  5
2C7
330
1F
100
AcDbEntity
  8
0
  6
SLD-SOLID
 62
     7
100
AcDbCircle
 10
4.2494883788
 20
4.690489582
 30
0.0
 40
0.0317499999999995
100
AcDbArc
 50
177.044291323
 51
357.044291323
  0
ARC
  5
2C8
330
1F
100
AcDbEntity
  8
0
  6
SLD-SOLID
 62
     7
100
AcDbCircle
 10
4.3426143277
 20
4.6856812417
 30
0.0
 40
0.1250000000000009
100
AcDbArc
 50
0.0
 51
177.044291323
  0
LINE
  5
2C9
330
1F
100
AcDbEntity
  8
0
  6
SLD-SOLID
 62
     7
100
AcDbLine
 10
4.4676143321
 20
3.0766812001
 30
0.0
 11
4.4676143321
 21
4.6856812328
 31
0.0
  0
LINE
  5
2CA
330
1F
100
AcDbEntity
  8
0
  6
SLD-SOLID
 62
     7
100
AcDbLine
 10
4.4041142657
 20
3.0766812001
 30
0.0
 11
4.4676143321
 21
3.0766812001
 31
0.0
  0
LINE
  5
2CB
330
1F
100
AcDbEntity
  8
0
  6
SLD-SOLID
 62
     7
100
AcDbLine
 10
4.4041142657
 20
4.5522243211
 30
0.0
 11
4.4041142657
 21
3.0766812001
 31
0.0
  0
ARC
  5
2CC
330
1F
100
AcDbEntity
  8
0
  6
SLD-SOLID
 62
     7
100
AcDbCircle
 10
4.3426143277
 20
4.6856812417
 30
0.0
 40
0.1250000000000008
100
AcDbArc
 50
272.955708677
 51
288.825987749
  0
ARC
  5
2CD
330
1F
100
AcDbEntity
  8
0
  6
SLD-SOLID
 62
     7
100
AcDbCircle
 10
4.347422668
 20
4.5925552928
 30
0.0
 40
0.0317500000000004
100
AcDbArc
 50
92.955708677
 51
272.955708677
  0
ARC
  5
2CE
330
1F
100
AcDbEntity
  8
0
  6
SLD-SOLID
 62
     7
100
AcDbCircle
 10
4.3881143277
 20
4.5522243198
 30
0.0
 40
0.0160000000000002
100
AcDbArc
 50
0.0
 51
108.825987749
  0
LINE
  5
2CF
330
1F
100
AcDbEntity
  8
0
  6
SLD-SOLID
 62
     7
100
AcDbLine
 10
14.0101143897
 20
4.5522243211
 30
0.0
 11
14.0101143897
 21
3.0766812001
 31
0.0
  0
LINE
  5
2D0
330
1F
100
AcDbEntity
  8
0
  6
SLD-SOLID
 62
     7
100
AcDbLine
 10
14.0101143897
 20
3.0766812001
 30
0.0
 11
13.9466143233
 21
3.0766812001
 31
0.0
  0
LINE
  5
2D1
330
1F
100
AcDbEntity
  8
0
  6
SLD-SOLID
 62
     7
100
AcDbLine
 10
13.9466143233
 20
3.0766812001
 30
0.0
 11
13.9466143233
 21
4.6856812328
 31
0.0
  0
ARC
  5
2D2
330
1F
100
AcDbEntity
  8
0
  6
SLD-SOLID
 62
     7
100
AcDbCircle
 10
14.0716143277
 20
4.6856812417
 30
0.0
 40
0.1250000000000018
100
AcDbArc
 50
2.955708677
 51
180.0
  0
ARC
  5
2D3
330
1F
100
AcDbEntity
  8
0
  6
SLD-SOLID
 62
     7
100
AcDbCircle
 10
14.1647402766
 20
4.690489582
 30
0.0
 40
0.0317499999999995
100
AcDbArc
 50
182.955708677
 51
2.955708677
  0
ARC
  5
2D4
330
1F
100
AcDbEntity
  8
0
  6
SLD-SOLID
 62
     7
100
AcDbCircle
 10
14.0716143277
 20
4.6856812417
 30
0.0
 40
0.0615000000000027
100
AcDbArc
 50
2.955708677
 51
267.044291323
  0
ARC
  5
2D5
330
1F
100
AcDbEntity
  8
0
  6
SLD-SOLID
 62
     7
100
AcDbCircle
 10
14.0668059874
 20
4.5925552928
 30
0.0
 40
0.0317500000000004
100
AcDbArc
 50
267.044291323
 51
87.044291323
  0
ARC
  5
2D6
330
1F
100
AcDbEntity
  8
0
  6
SLD-SOLID
 62
     7
100
AcDbCircle
 10
14.0716143277
 20
4.6856812417
 30
0.0
 40
0.1250000000000008
100
AcDbArc
 50
251.174012251
 51
267.044291323
  0
ARC
  5
2D7
330
1F
100
AcDbEntity
  8
0
  6
SLD-SOLID
 62
     7
100
AcDbCircle
 10
14.0261143277
 20
4.5522243198
 30
0.0
 40
0.0160000000000005
100
AcDbArc
 50
71.174012251
 51
180.0
  0
ARC
  5
2D8
330
1F
100
AcDbEntity
  8
0
  6
SLD-SOLID
 62
     7
100
AcDbCircle
 10
9.3486143277
 20
5.1989312417
 30
0.0
 40
0.0150000000000006
100
AcDbArc
 50
0.0
 51
90.0
  0
ARC
  5
2D9
330
1F
100
AcDbEntity
  8
0
  6
SLD-SOLID
 62
     7
100
AcDbCircle
 10
9.2533643277
 20
5.1989312417
 30
0.0
 40
0.0149999999999997
100
AcDbArc
 50
90.0
 51
180.0
  0
ARC
  5
2DA
330
1F
100
AcDbEntity
  8
0
  6
SLD-SOLID
 62
     7
100
AcDbCircle
 10
9.2533643277
 20
3.9169312417
 30
0.0
 40
0.0149999999999997
100
AcDbArc
 50
180.0
 51
270.0
  0
ARC
  5
2DB
330
1F
100
AcDbEntity
  8
0
  6
SLD-SOLID
 62
     7
100
AcDbCircle
 10
9.3486143277
 20
3.9169312417
 30
0.0
 40
0.0150000000000006
100
AcDbArc
 50
270.0
 51
0.0
  0
ARC
  5
2DC
330
1F
100
AcDbEntity
  8
0
  6
SLD-SOLID
 62
     7
100
AcDbCircle
 10
9.3786143277
 20
4.1999312417
 30
0.0
 40
0.0150000000000006
100
AcDbArc
 50
90.0
 51
180.0
  0
ARC
  5
2DD
330
1F
100
AcDbEntity
  8
0
  6
SLD-SOLID
 62
     7
100
AcDbCircle
 10
9.4111143277
 20
4.1999312417
 30
0.0
 40
0.0150000000000006
100
AcDbArc
 50
0.0
 51
90.0
  0
ARC
  5
2DE
330
1F
100
AcDbEntity
  8
0
  6
SLD-SOLID
 62
     7
100
AcDbCircle
 10
9.4111143277
 20
3.8544312417
 30
0.0
 40
0.0150000000000006
100
AcDbArc
 50
270.0
 51
0.0
  0
LINE
  5
2DF
330
1F
100
AcDbEntity
  8
0
  6
SLD-SOLID
 62
     7
100
AcDbLine
 10
9.2533643292
 20
3.8394313087
 30
0.0
 11
9.4111143227
 21
3.8394313087
 31
0.0
  0
ARC
  5
2E0
330
1F
100
AcDbEntity
  8
0
  6
SLD-SOLID
 62
     7
100
AcDbCircle
 10
9.2533643277
 20
3.8244312417
 30
0.0
 40
0.0149999999999997
100
AcDbArc
 50
90.0
 51
180.0
  0
LINE
  5
2E1
330
1F
100
AcDbEntity
  8
0
  6
SLD-SOLID
 62
     7
100
AcDbLine
 10
9.2383643273
 20
3.1306443767
 30
0.0
 11
9.2383643273
 21
3.8244312953
 31
0.0
  0
ARC
  5
2E2
330
1F
100
AcDbEntity
  8
0
  6
SLD-SOLID
 62
     7
100
AcDbCircle
 10
9.2533643277
 20
3.1306444451
 30
0.0
 40
0.0150000000000006
100
AcDbArc
 50
180.0
 51
225.0
  0
LINE
  5
2E3
330
1F
100
AcDbEntity
  8
0
  6
SLD-SOLID
 62
     7
100
AcDbLine
 10
9.3274709315
 20
3.0353246111
 30
0.0
 11
9.242757727
 21
3.1200378592
 31
0.0
  0
ARC
  5
2E4
330
1F
100
AcDbEntity
  8
0
  6
SLD-SOLID
 62
     7
100
AcDbCircle
 10
9.3380775311
 20
3.0459312417
 30
0.0
 40
0.0150000000000015
100
AcDbArc
 50
225.0
 51
270.0
  0
LINE
  5
2E5
330
1F
100
AcDbEntity
  8
0
  6
SLD-SOLID
 62
     7
100
AcDbLine
 10
10.9111143229
 20
3.0309312619
 30
0.0
 11
9.3380775315
 21
3.0309312619
 31
0.0
  0
ARC
  5
2E6
330
1F
100
AcDbEntity
  8
0
  6
SLD-SOLID
 62
     7
100
AcDbCircle
 10
10.9111143277
 20
3.0159312417
 30
0.0
 40
0.0150000000000001
100
AcDbArc
 50
0.0
 51
90.0
  0
LINE
  5
2E7
330
1F
100
AcDbEntity
  8
0
  6
SLD-SOLID
 62
     7
100
AcDbLine
 10
10.9261143363
 20
2.9834311706
 30
0.0
 11
10.9261143363
 21
3.0159312485
 31
0.0
  0
ARC
  5
2E8
330
1F
100
AcDbEntity
  8
0
  6
SLD-SOLID
 62
     7
100
AcDbCircle
 10
10.9111143277
 20
2.9834312417
 30
0.0
 40
0.0149999999999997
100
AcDbArc
 50
270.0
 51
0.0
  0
LINE
  5
2E9
330
1F
100
AcDbEntity
  8
0
  6
SLD-SOLID
 62
     7
100
AcDbLine
 10
9.3118275355
 20
2.9684313039
 30
0.0
 11
10.9111143229
 21
2.9684313039
 31
0.0
  0
ARC
  5
2EA
330
1F
100
AcDbEntity
  8
0
  6
SLD-SOLID
 62
     7
100
AcDbCircle
 10
9.3118275311
 20
2.9834312417
 30
0.0
 40
0.0150000000000002
100
AcDbArc
 50
225.0
 51
270.0
  0
LINE
  5
2EB
330
1F
100
AcDbEntity
  8
0
  6
SLD-SOLID
 62
     7
100
AcDbLine
 10
9.21772093
 20
3.0563246886
 30
0.0
 11
9.3012209264
 21
2.9728246532
 31
0.0
  0
ARC
  5
2EC
330
1F
100
AcDbEntity
  8
0
  6
SLD-SOLID
 62
     7
100
AcDbCircle
 10
9.2071143277
 20
3.0457180383
 30
0.0
 40
0.0150000000000002
100
AcDbArc
 50
45.0
 51
135.0
  0
LINE
  5
2ED
330
1F
100
AcDbEntity
  8
0
  6
SLD-SOLID
 62
     7
100
AcDbLine
 10
9.113007729
 20
2.9728246532
 30
0.0
 11
9.1965077254
 21
3.0563246886
 31
0.0
  0
ARC
  5
2EE
330
1F
100
AcDbEntity
  8
0
  6
SLD-SOLID
 62
     7
100
AcDbCircle
 10
9.1024011243
 20
2.9834312417
 30
0.0
 40
0.0149999999999999
100
AcDbArc
 50
270.0
 51
315.0
  0
LINE
  5
2EF
330
1F
100
AcDbEntity
  8
0
  6
SLD-SOLID
 62
     7
100
AcDbLine
 10
7.5031143324
 20
2.9684313039
 30
0.0
 11
9.1024011198
 21
2.9684313039
 31
0.0
  0
ARC
  5
2F0
330
1F
100
AcDbEntity
  8
0
  6
SLD-SOLID
 62
     7
100
AcDbCircle
 10
7.5031143277
 20
2.9834312417
 30
0.0
 40
0.0150000000000006
100
AcDbArc
 50
180.0
 51
270.0
  0
LINE
  5
2F1
330
1F
100
AcDbEntity
  8
0
  6
SLD-SOLID
 62
     7
100
AcDbLine
 10
7.4881143191
 20
3.0159312485
 30
0.0
 11
7.4881143191
 21
2.9834311706
 31
0.0
  0
ARC
  5
2F2
330
1F
100
AcDbEntity
  8
0
  6
SLD-SOLID
 62
     7
100
AcDbCircle
 10
7.5031143277
 20
3.0159312417
 30
0.0
 40
0.0150000000000006
100
AcDbArc
 50
90.0
 51
180.0
  0
LINE
  5
2F3
330
1F
100
AcDbEntity
  8
0
  6
SLD-SOLID
 62
     7
100
AcDbLine
 10
9.0761511239
 20
3.0309312619
 30
0.0
 11
7.5031143324
 21
3.0309312619
 31
0.0
  0
ARC
  5
2F4
330
1F
100
AcDbEntity
  8
0
  6
SLD-SOLID
 62
     7
100
AcDbCircle
 10
9.0761511243
 20
3.0459312417
 30
0.0
 40
0.0150000000000002
100
AcDbArc
 50
270.0
 51
315.0
  0
LINE
  5
2F5
330
1F
100
AcDbEntity
  8
0
  6
SLD-SOLID
 62
     7
100
AcDbLine
 10
9.1714709284
 20
3.1200378592
 30
0.0
 11
9.0867577239
 21
3.0353246111
 31
0.0
  0
LINE
  5
2F6
330
1F
100
AcDbEntity
  8
0
  6
SLD-SOLID
 62
     7
100
AcDbLine
 10
9.1758643281
 20
3.8244312953
 30
0.0
 11
9.1758643281
 21
3.1306443767
 31
0.0
  0
ARC
  5
2F7
330
1F
100
AcDbEntity
  8
0
  6
SLD-SOLID
 62
     7
100
AcDbCircle
 10
9.1608643277
 20
3.8244312417
 30
0.0
 40
0.0149999999999997
100
AcDbArc
 50
0.0
 51
90.0
  0
LINE
  5
2F8
330
1F
100
AcDbEntity
  8
0
  6
SLD-SOLID
 62
     7
100
AcDbLine
 10
9.0031143327
 20
3.8394313087
 30
0.0
 11
9.1608643261
 21
3.8394313087
 31
0.0
  0
ARC
  5
2F9
330
1F
100
AcDbEntity
  8
0
  6
SLD-SOLID
 62
     7
100
AcDbCircle
 10
9.0031143277
 20
3.8544312417
 30
0.0
 40
0.0150000000000006
100
AcDbArc
 50
180.0
 51
270.0
  0
LINE
  5
2FA
330
1F
100
AcDbEntity
  8
0
  6
SLD-SOLID
 62
     7
100
AcDbLine
 10
8.9881143193
 20
4.1999312442
 30
0.0
 11
8.9881143193
 21
3.8544311754
 31
0.0
  0
ARC
  5
2FB
330
1F
100
AcDbEntity
  8
0
  6
SLD-SOLID
 62
     7
100
AcDbCircle
 10
9.0031143277
 20
4.1999312417
 30
0.0
 40
0.0150000000000023
100
AcDbArc
 50
90.0
 51
180.0
  0
LINE
  5
2FC
330
1F
100
AcDbEntity
  8
0
  6
SLD-SOLID
 62
     7
100
AcDbLine
 10
9.0356143189
 20
4.2149312576
 30
0.0
 11
9.0031143327
 21
4.2149312576
 31
0.0
  0
ARC
  5
2FD
330
1F
100
AcDbEntity
  8
0
  6
SLD-SOLID
 62
     7
100
AcDbCircle
 10
9.0356143277
 20
4.1999312417
 30
0.0
 40
0.0150000000000006
100
AcDbArc
 50
0.0
 51
90.0
  0
LINE
  5
2FE
330
1F
100
AcDbEntity
  8
0
  6
SLD-SOLID
 62
     7
100
AcDbLine
 10
9.0506143323
 20
3.9169312801
 30
0.0
 11
9.0506143323
 21
4.1999312442
 31
0.0
  0
ARC
  5
2FF
330
1F
100
AcDbEntity
  8
0
  6
SLD-SOLID
 62
     7
100
AcDbCircle
 10
9.0656143277
 20
3.9169312417
 30
0.0
 40
0.0150000000000006
100
AcDbArc
 50
180.0
 51
270.0
  0
LINE
  5
300
330
1F
100
AcDbEntity
  8
0
  6
SLD-SOLID
 62
     7
100
AcDbLine
 10
9.1608643261
 20
3.9019312667
 30
0.0
 11
9.0656143273
 21
3.9019312667
 31
0.0
  0
ARC
  5
301
330
1F
100
AcDbEntity
  8
0
  6
SLD-SOLID
 62
     7
100
AcDbCircle
 10
9.1608643277
 20
3.9169312417
 30
0.0
 40
0.0149999999999997
100
AcDbArc
 50
270.0
 51
0.0
  0
LINE
  5
302
330
1F
100
AcDbEntity
  8
0
  6
SLD-SOLID
 62
     7
100
AcDbLine
 10
9.1758643281
 20
5.1989312428
 30
0.0
 11
9.1758643281
 21
3.9169312801
 31
0.0
  0
ARC
  5
303
330
1F
100
AcDbEntity
  8
0
  6
SLD-SOLID
 62
     7
100
AcDbCircle
 10
9.1608643277
 20
5.1989312417
 30
0.0
 40
0.0149999999999997
100
AcDbArc
 50
0.0
 51
90.0
  0
LINE
  5
304
330
1F
100
AcDbEntity
  8
0
  6
SLD-SOLID
 62
     7
100
AcDbLine
 10
9.0656143273
 20
5.2139312424
 30
0.0
 11
9.1608643261
 21
5.2139312424
 31
0.0
  0
ARC
  5
305
330
1F
100
AcDbEntity
  8
0
  6
SLD-SOLID
 62
     7
100
AcDbCircle
 10
9.0656143277
 20
5.1989312417
 30
0.0
 40
0.0150000000000006
100
AcDbArc
 50
90.0
 51
180.0
  0
LINE
  5
306
330
1F
100
AcDbEntity
  8
0
  6
SLD-SOLID
 62
     7
100
AcDbLine
 10
9.0506143323
 20
5.1039312344
 30
0.0
 11
9.0506143323
 21
5.1989312428
 31
0.0
  0
ARC
  5
307
330
1F
100
AcDbEntity
  8
0
  6
SLD-SOLID
 62
     7
100
AcDbCircle
 10
9.0356143277
 20
5.1039312417
 30
0.0
 40
0.0150000000000006
100
AcDbArc
 50
270.0
 51
0.0
  0
LINE
  5
308
330
1F
100
AcDbEntity
  8
0
  6
SLD-SOLID
 62
     7
100
AcDbLine
 10
9.0031143327
 20
5.0889312394
 30
0.0
 11
9.0356143189
 21
5.0889312394
 31
0.0
  0
ARC
  5
309
330
1F
100
AcDbEntity
  8
0
  6
SLD-SOLID
 62
     7
100
AcDbCircle
 10
9.0031143277
 20
5.1039312417
 30
0.0
 40
0.0150000000000023
100
AcDbArc
 50
180.0
 51
270.0
  0
LINE
  5
30A
330
1F
100
AcDbEntity
  8
0
  6
SLD-SOLID
 62
     7
100
AcDbLine
 10
8.9881143193
 20
5.2614312421
 30
0.0
 11
8.9881143193
 21
5.1039312344
 31
0.0
  0
ARC
  5
30B
330
1F
100
AcDbEntity
  8
0
  6
SLD-SOLID
 62
     7
100
AcDbCircle
 10
9.0031143277
 20
5.2614312417
 30
0.0
 40
0.0150000000000023
100
AcDbArc
 50
90.0
 51
180.0
  0
ARC
  5
30C
330
1F
100
AcDbEntity
  8
0
  6
SLD-SOLID
 62
     7
100
AcDbCircle
 10
9.4111143277
 20
5.2614312417
 30
0.0
 40
0.0150000000000006
100
AcDbArc
 50
0.0
 51
90.0
  0
ARC
  5
30D
330
1F
100
AcDbEntity
  8
0
  6
SLD-SOLID
 62
     7
100
AcDbCircle
 10
9.4111143277
 20
5.1039312417
 30
0.0
 40
0.0150000000000006
100
AcDbArc
 50
270.0
 51
0.0
  0
ARC
  5
30E
330
1F
100
AcDbEntity
  8
0
  6
SLD-SOLID
 62
     7
100
AcDbCircle
 10
9.3786143277
 20
5.1039312417
 30
0.0
 40
0.0150000000000006
100
AcDbArc
 50
180.0
 51
270.0
  0
LINE
  5
30F
330
1F
100
AcDbEntity
  8
0
  6
SLD-SOLID
 62
     7
100
AcDbLine
 10
9.4111143227
 20
5.2764312417
 30
0.0
 11
9.0031143327
 21
5.2764312417
 31
0.0
  0
LINE
  5
310
330
1F
100
AcDbEntity
  8
0
  6
SLD-SOLID
 62
     7
100
AcDbLine
 10
9.4261143361
 20
5.1039312344
 30
0.0
 11
9.4261143361
 21
5.2614312421
 31
0.0
  0
LINE
  5
311
330
1F
100
AcDbEntity
  8
0
  6
SLD-SOLID
 62
     7
100
AcDbLine
 10
9.3786143365
 20
5.0889312394
 30
0.0
 11
9.4111143227
 21
5.0889312394
 31
0.0
  0
LINE
  5
312
330
1F
100
AcDbEntity
  8
0
  6
SLD-SOLID
 62
     7
100
AcDbLine
 10
9.3636143231
 20
5.1989312428
 30
0.0
 11
9.3636143231
 21
5.1039312344
 31
0.0
  0
LINE
  5
313
330
1F
100
AcDbEntity
  8
0
  6
SLD-SOLID
 62
     7
100
AcDbLine
 10
9.2533643292
 20
5.2139312424
 30
0.0
 11
9.3486143281
 21
5.2139312424
 31
0.0
  0
LINE
  5
314
330
1F
100
AcDbEntity
  8
0
  6
SLD-SOLID
 62
     7
100
AcDbLine
 10
9.2383643273
 20
3.9169312801
 30
0.0
 11
9.2383643273
 21
5.1989312428
 31
0.0
  0
LINE
  5
315
330
1F
100
AcDbEntity
  8
0
  6
SLD-SOLID
 62
     7
100
AcDbLine
 10
9.3486143281
 20
3.9019312667
 30
0.0
 11
9.2533643292
 21
3.9019312667
 31
0.0
  0
LINE
  5
316
330
1F
100
AcDbEntity
  8
0
  6
SLD-SOLID
 62
     7
100
AcDbLine
 10
9.3636143231
 20
4.1999312442
 30
0.0
 11
9.3636143231
 21
3.9169312801
 31
0.0
  0
LINE
  5
317
330
1F
100
AcDbEntity
  8
0
  6
SLD-SOLID
 62
     7
100
AcDbLine
 10
9.4261143361
 20
3.8544311754
 30
0.0
 11
9.4261143361
 21
4.1999312442
 31
0.0
  0
ARC
  5
318
330
1F
100
AcDbEntity
  8
0
  6
SLD-SOLID
 62
     7
100
AcDbCircle
 10
9.1608643277
 20
3.1306444451
 30
0.0
 40
0.0150000000000006
100
AcDbArc
 50
315.0
 51
0.0
  0
LINE
  5
319
330
1F
100
AcDbEntity
  8
0
  6
SLD-SOLID
 62
     7
100
AcDbLine
 10
9.4111143227
 20
4.2149312576
 30
0.0
 11
9.3786143365
 21
4.2149312576
 31
0.0
  0
ARC
  5
31A
330
1F
100
AcDbEntity
  8
0
  6
SLD-SOLID
 62
     7
100
AcDbCircle
 10
12.4497942308
 20
4.5086170707
 30
0.0
 40
0.1787294171715586
100
AcDbArc
 50
274.9651406421
 51
290.4680993482
  0
ARC
  5
31B
330
1F
100
AcDbEntity
  8
0
  6
SLD-SOLID
 62
     7
100
AcDbCircle
 10
12.505049443
 20
4.4523589247
 30
0.0
 40
0.1114232752262311
100
AcDbArc
 50
266.2724167902
 51
273.7275832098
  0
ARC
  5
31C
330
1F
100
AcDbEntity
  8
0
  6
SLD-SOLID
 62
     7
100
AcDbCircle
 10
12.4110628909
 20
4.6682046284
 30
0.0
 40
0.3383415921077331
100
AcDbArc
 50
273.6738212963
 51
284.8551276331
  0
ARC
  5
31D
330
1F
100
AcDbEntity
  8
0
  6
SLD-SOLID
 62
     7
100
AcDbCircle
 10
12.4506906456
 20
4.54088067
 30
0.0
 40
0.2110867599074363
100
AcDbArc
 50
251.1026853947
 51
265.1224261525
  0
ARC
  5
31E
330
1F
100
AcDbEntity
  8
0
  6
SLD-SOLID
 62
     7
100
AcDbCircle
 10
12.3712373088
 20
4.6018095689
 30
0.0
 40
0.2608739418262941
100
AcDbArc
 50
267.5640031356
 51
272.4359968644
  0
ARC
  5
31F
330
1F
100
AcDbEntity
  8
0
  6
SLD-SOLID
 62
     7
100
AcDbCircle
 10
12.3925354676
 20
4.380963965
 30
0.0
 40
0.0513060902308065
100
AcDbArc
 50
230.8587349711
 51
259.2496871683
  0
ARC
  5
320
330
1F
100
AcDbEntity
  8
0
  6
SLD-SOLID
 62
     7
100
AcDbCircle
 10
12.4368415487
 20
4.6653382616
 30
0.0
 40
0.3354603757647046
100
AcDbArc
 50
260.8463709928
 51
266.3500557216
  0
LWPOLYLINE
  5
321
330
1F
100
AcDbEntity
  8
0
  6
SLD-SOLID
 62
     7
100
AcDbPolyline
 90
        3
 70
   128
 43
0.0
 10
12.4154859843
 20
4.3305583285
 10
12.4217949248
 20
4.3311811413
 10
12.4241142846
 20
4.3314607581
  0
LINE
  5
322
330
1F
100
AcDbEntity
  8
0
  6
SLD-SOLID
 62
     7
100
AcDbLine
 10
12.4946143769
 20
6.6189930123
 30
0.0
 11
12.3536141924
 21
6.6189930123
 31
0.0
  0
LINE
  5
323
330
1F
100
AcDbEntity
  8
0
  6
SLD-SOLID
 62
     7
100
AcDbLine
 10
12.5191144672
 20
6.604847909
 30
0.0
 11
12.3291143954
 21
6.604847909
 31
0.0
  0
LINE
  5
324
330
1F
100
AcDbEntity
  8
0
  6
SLD-SOLID
 62
     7
100
AcDbLine
 10
12.4946143769
 20
6.3967707928
 30
0.0
 11
12.3536141924
 21
6.3967707928
 31
0.0
  0
LINE
  5
325
330
1F
100
AcDbEntity
  8
0
  6
SLD-SOLID
 62
     7
100
AcDbLine
 10
12.5191144672
 20
6.3826256895
 30
0.0
 11
12.3291143954
 21
6.3826256895
 31
0.0
  0
LINE
  5
326
330
1F
100
AcDbEntity
  8
0
  6
SLD-SOLID
 62
     7
100
AcDbLine
 10
12.5191144672
 20
6.327070098
 30
0.0
 11
12.3291143954
 21
6.327070098
 31
0.0
  0
LINE
  5
327
330
1F
100
AcDbEntity
  8
0
  6
SLD-SOLID
 62
     7
100
AcDbLine
 10
12.3855548901
 20
6.312925068
 30
0.0
 11
12.4946143769
 21
6.312925068
 31
0.0
  0
LINE
  5
328
330
1F
100
AcDbEntity
  8
0
  6
SLD-SOLID
 62
     7
100
AcDbLine
 10
12.3536141924
 20
6.312925068
 30
0.0
 11
12.3855548901
 21
6.312925068
 31
0.0
  0
LINE
  5
329
330
1F
100
AcDbEntity
  8
0
  6
SLD-SOLID
 62
     7
100
AcDbLine
 10
12.3855548901
 20
6.5907028058
 30
0.0
 11
12.4946143769
 21
6.5907028058
 31
0.0
  0
LINE
  5
32A
330
1F
100
AcDbEntity
  8
0
  6
SLD-SOLID
 62
     7
100
AcDbLine
 10
12.3536141924
 20
6.5907028058
 30
0.0
 11
12.3855548901
 21
6.5907028058
 31
0.0
  0
LINE
  5
32B
330
1F
100
AcDbEntity
  8
0
  6
SLD-SOLID
 62
     7
100
AcDbLine
 10
12.4946143769
 20
6.5634374941
 30
0.0
 11
12.3536141924
 21
6.5634374941
 31
0.0
  0
LINE
  5
32C
330
1F
100
AcDbEntity
  8
0
  6
SLD-SOLID
 62
     7
100
AcDbLine
 10
12.5191144672
 20
6.5492923908
 30
0.0
 11
12.3291143954
 21
6.5492923908
 31
0.0
  0
LINE
  5
32D
330
1F
100
AcDbEntity
  8
0
  6
SLD-SOLID
 62
     7
100
AcDbLine
 10
12.3855548901
 20
6.5351472876
 30
0.0
 11
12.4946143769
 21
6.5351472876
 31
0.0
  0
LINE
  5
32E
330
1F
100
AcDbEntity
  8
0
  6
SLD-SOLID
 62
     7
100
AcDbLine
 10
12.3536141924
 20
6.5351472876
 30
0.0
 11
12.3855548901
 21
6.5351472876
 31
0.0
  0
LINE
  5
32F
330
1F
100
AcDbEntity
  8
0
  6
SLD-SOLID
 62
     7
100
AcDbLine
 10
12.4946143769
 20
6.6745485305
 30
0.0
 11
12.3536141924
 21
6.6745485305
 31
0.0
  0
LINE
  5
330
330
1F
100
AcDbEntity
  8
0
  6
SLD-SOLID
 62
     7
100
AcDbLine
 10
12.5191144672
 20
6.6604034273
 30
0.0
 11
12.3291143954
 21
6.6604034273
 31
0.0
  0
LINE
  5
331
330
1F
100
AcDbEntity
  8
0
  6
SLD-SOLID
 62
     7
100
AcDbLine
 10
12.4946143769
 20
6.452326311
 30
0.0
 11
12.3536141924
 21
6.452326311
 31
0.0
  0
LINE
  5
332
330
1F
100
AcDbEntity
  8
0
  6
SLD-SOLID
 62
     7
100
AcDbLine
 10
12.5191144672
 20
6.4381812077
 30
0.0
 11
12.3291143954
 21
6.4381812077
 31
0.0
  0
LINE
  5
333
330
1F
100
AcDbEntity
  8
0
  6
SLD-SOLID
 62
     7
100
AcDbLine
 10
12.4946143769
 20
6.5078818292
 30
0.0
 11
12.3536141924
 21
6.5078818292
 31
0.0
  0
LINE
  5
334
330
1F
100
AcDbEntity
  8
0
  6
SLD-SOLID
 62
     7
100
AcDbLine
 10
12.5191144672
 20
6.4937367993
 30
0.0
 11
12.3291143954
 21
6.4937367993
 31
0.0
  0
LINE
  5
335
330
1F
100
AcDbEntity
  8
0
  6
SLD-SOLID
 62
     7
100
AcDbLine
 10
12.3855548901
 20
6.479591696
 30
0.0
 11
12.4946143769
 21
6.479591696
 31
0.0
  0
LINE
  5
336
330
1F
100
AcDbEntity
  8
0
  6
SLD-SOLID
 62
     7
100
AcDbLine
 10
12.3536141924
 20
6.479591696
 30
0.0
 11
12.3855548901
 21
6.479591696
 31
0.0
  0
LINE
  5
337
330
1F
100
AcDbEntity
  8
0
  6
SLD-SOLID
 62
     7
100
AcDbLine
 10
12.4946143769
 20
6.285659683
 30
0.0
 11
12.3536141924
 21
6.285659683
 31
0.0
  0
LINE
  5
338
330
1F
100
AcDbEntity
  8
0
  6
SLD-SOLID
 62
     7
100
AcDbLine
 10
12.5191144672
 20
6.2715145797
 30
0.0
 11
12.3291143954
 21
6.2715145797
 31
0.0
  0
LINE
  5
339
330
1F
100
AcDbEntity
  8
0
  6
SLD-SOLID
 62
     7
100
AcDbLine
 10
12.4946143769
 20
6.7301040487
 30
0.0
 11
12.3536141924
 21
6.7301040487
 31
0.0
  0
LINE
  5
33A
330
1F
100
AcDbEntity
  8
0
  6
SLD-SOLID
 62
     7
100
AcDbLine
 10
12.5191144672
 20
6.7159590921
 30
0.0
 11
12.3291143954
 21
6.7159590921
 31
0.0
  0
LINE
  5
33B
330
1F
100
AcDbEntity
  8
0
  6
SLD-SOLID
 62
     7
100
AcDbLine
 10
12.3855548901
 20
6.646258324
 30
0.0
 11
12.4946143769
 21
6.646258324
 31
0.0
  0
LINE
  5
33C
330
1F
100
AcDbEntity
  8
0
  6
SLD-SOLID
 62
     7
100
AcDbLine
 10
12.3536141924
 20
6.646258324
 30
0.0
 11
12.3855548901
 21
6.646258324
 31
0.0
  0
LINE
  5
33D
330
1F
100
AcDbEntity
  8
0
  6
SLD-SOLID
 62
     7
100
AcDbLine
 10
12.3855548901
 20
6.2573694765
 30
0.0
 11
12.4946143769
 21
6.2573694765
 31
0.0
  0
LINE
  5
33E
330
1F
100
AcDbEntity
  8
0
  6
SLD-SOLID
 62
     7
100
AcDbLine
 10
12.3536141924
 20
6.2573694765
 30
0.0
 11
12.3855548901
 21
6.2573694765
 31
0.0
  0
LINE
  5
33F
330
1F
100
AcDbEntity
  8
0
  6
SLD-SOLID
 62
     7
100
AcDbLine
 10
12.3855548901
 20
6.4240361778
 30
0.0
 11
12.4946143769
 21
6.4240361778
 31
0.0
  0
LINE
  5
340
330
1F
100
AcDbEntity
  8
0
  6
SLD-SOLID
 62
     7
100
AcDbLine
 10
12.3536141924
 20
6.4240361778
 30
0.0
 11
12.3855548901
 21
6.4240361778
 31
0.0
  0
LINE
  5
341
330
1F
100
AcDbEntity
  8
0
  6
SLD-SOLID
 62
     7
100
AcDbLine
 10
12.3855548901
 20
6.3684805862
 30
0.0
 11
12.4946143769
 21
6.3684805862
 31
0.0
  0
LINE
  5
342
330
1F
100
AcDbEntity
  8
0
  6
SLD-SOLID
 62
     7
100
AcDbLine
 10
12.3536141924
 20
6.3684805862
 30
0.0
 11
12.3855548901
 21
6.3684805862
 31
0.0
  0
LINE
  5
343
330
1F
100
AcDbEntity
  8
0
  6
SLD-SOLID
 62
     7
100
AcDbLine
 10
12.3855548901
 20
6.7018139889
 30
0.0
 11
12.4946143769
 21
6.7018139889
 31
0.0
  0
LINE
  5
344
330
1F
100
AcDbEntity
  8
0
  6
SLD-SOLID
 62
     7
100
AcDbLine
 10
12.3536141924
 20
6.7018139889
 30
0.0
 11
12.3855548901
 21
6.7018139889
 31
0.0
  0
LINE
  5
345
330
1F
100
AcDbEntity
  8
0
  6
SLD-SOLID
 62
     7
100
AcDbLine
 10
12.4946143769
 20
6.3412152012
 30
0.0
 11
12.3536141924
 21
6.3412152012
 31
0.0
  0
LINE
  5
346
330
1F
100
AcDbEntity
  8
0
  6
SLD-SOLID
 62
     7
100
AcDbLine
 10
12.4946143769
 20
5.5634374328
 30
0.0
 11
12.3536141924
 21
5.5634374328
 31
0.0
  0
LINE
  5
347
330
1F
100
AcDbEntity
  8
0
  6
SLD-SOLID
 62
     7
100
AcDbLine
 10
12.5191144672
 20
5.5492923479
 30
0.0
 11
12.3291143954
 21
5.5492923479
 31
0.0
  0
LINE
  5
348
330
1F
100
AcDbEntity
  8
0
  6
SLD-SOLID
 62
     7
100
AcDbLine
 10
12.4946143769
 20
5.507881878
 30
0.0
 11
12.3536141924
 21
5.507881878
 31
0.0
  0
LINE
  5
349
330
1F
100
AcDbEntity
  8
0
  6
SLD-SOLID
 62
     7
100
AcDbLine
 10
12.5191144672
 20
5.493736793
 30
0.0
 11
12.3291143954
 21
5.493736793
 31
0.0
  0
LINE
  5
34A
330
1F
100
AcDbEntity
  8
0
  6
SLD-SOLID
 62
     7
100
AcDbLine
 10
12.5191144672
 20
5.049292354
 30
0.0
 11
12.3291143954
 21
5.049292354
 31
0.0
  0
LINE
  5
34B
330
1F
100
AcDbEntity
  8
0
  6
SLD-SOLID
 62
     7
100
AcDbLine
 10
12.3855548901
 20
5.035147269
 30
0.0
 11
12.4946143769
 21
5.035147269
 31
0.0
  0
LINE
  5
34C
330
1F
100
AcDbEntity
  8
0
  6
SLD-SOLID
 62
     7
100
AcDbLine
 10
12.3536141924
 20
5.035147269
 30
0.0
 11
12.3855548901
 21
5.035147269
 31
0.0
  0
LINE
  5
34D
330
1F
100
AcDbEntity
  8
0
  6
SLD-SOLID
 62
     7
100
AcDbLine
 10
12.5191144672
 20
5.9381812504
 30
0.0
 11
12.3291143954
 21
5.9381812504
 31
0.0
  0
LINE
  5
34E
330
1F
100
AcDbEntity
  8
0
  6
SLD-SOLID
 62
     7
100
AcDbLine
 10
12.3855548901
 20
5.9240361472
 30
0.0
 11
12.4946143769
 21
5.9240361472
 31
0.0
  0
LINE
  5
34F
330
1F
100
AcDbEntity
  8
0
  6
SLD-SOLID
 62
     7
100
AcDbLine
 10
12.3536141924
 20
5.9240361472
 30
0.0
 11
12.3855548901
 21
5.9240361472
 31
0.0
  0
LINE
  5
350
330
1F
100
AcDbEntity
  8
0
  6
SLD-SOLID
 62
     7
100
AcDbLine
 10
12.3855548901
 20
5.4795917081
 30
0.0
 11
12.4946143769
 21
5.4795917081
 31
0.0
  0
LINE
  5
351
330
1F
100
AcDbEntity
  8
0
  6
SLD-SOLID
 62
     7
100
AcDbLine
 10
12.3536141924
 20
5.4795917081
 30
0.0
 11
12.3855548901
 21
5.4795917081
 31
0.0
  0
LINE
  5
352
330
1F
100
AcDbEntity
  8
0
  6
SLD-SOLID
 62
     7
100
AcDbLine
 10
12.5191144672
 20
5.1048479088
 30
0.0
 11
12.3291143954
 21
5.1048479088
 31
0.0
  0
LINE
  5
353
330
1F
100
AcDbEntity
  8
0
  6
SLD-SOLID
 62
     7
100
AcDbLine
 10
12.3855548901
 20
5.0907028239
 30
0.0
 11
12.4946143769
 21
5.0907028239
 31
0.0
  0
LINE
  5
354
330
1F
100
AcDbEntity
  8
0
  6
SLD-SOLID
 62
     7
100
AcDbLine
 10
12.3536141924
 20
5.0907028239
 30
0.0
 11
12.3855548901
 21
5.0907028239
 31
0.0
  0
LINE
  5
355
330
1F
100
AcDbEntity
  8
0
  6
SLD-SOLID
 62
     7
100
AcDbLine
 10
12.5191144672
 20
4.9937367991
 30
0.0
 11
12.3291143954
 21
4.9937367991
 31
0.0
  0
LINE
  5
356
330
1F
100
AcDbEntity
  8
0
  6
SLD-SOLID
 62
     7
100
AcDbLine
 10
12.3855548901
 20
4.9795917141
 30
0.0
 11
12.4946143769
 21
4.9795917141
 31
0.0
  0
LINE
  5
357
330
1F
100
AcDbEntity
  8
0
  6
SLD-SOLID
 62
     7
100
AcDbLine
 10
12.3536141924
 20
4.9795917141
 30
0.0
 11
12.3855548901
 21
4.9795917141
 31
0.0
  0
LINE
  5
358
330
1F
100
AcDbEntity
  8
0
  6
SLD-SOLID
 62
     7
100
AcDbLine
 10
12.4946143769
 20
5.007881884
 30
0.0
 11
12.3536141924
 21
5.007881884
 31
0.0
  0
LINE
  5
359
330
1F
100
AcDbEntity
  8
0
  6
SLD-SOLID
 62
     7
100
AcDbLine
 10
12.5191144672
 20
5.8270701407
 30
0.0
 11
12.3291143954
 21
5.8270701407
 31
0.0
  0
LINE
  5
35A
330
1F
100
AcDbEntity
  8
0
  6
SLD-SOLID
 62
     7
100
AcDbLine
 10
12.3855548901
 20
5.8129250374
 30
0.0
 11
12.4946143769
 21
5.8129250374
 31
0.0
  0
LINE
  5
35B
330
1F
100
AcDbEntity
  8
0
  6
SLD-SOLID
 62
     7
100
AcDbLine
 10
12.3536141924
 20
5.8129250374
 30
0.0
 11
12.3855548901
 21
5.8129250374
 31
0.0
  0
LINE
  5
35C
330
1F
100
AcDbEntity
  8
0
  6
SLD-SOLID
 62
     7
100
AcDbLine
 10
12.4946143769
 20
5.0634374389
 30
0.0
 11
12.3536141924
 21
5.0634374389
 31
0.0
  0
LINE
  5
35D
330
1F
100
AcDbEntity
  8
0
  6
SLD-SOLID
 62
     7
100
AcDbLine
 10
12.4946143769
 20
5.7301040975
 30
0.0
 11
12.3536141924
 21
5.7301040975
 31
0.0
  0
LINE
  5
35E
330
1F
100
AcDbEntity
  8
0
  6
SLD-SOLID
 62
     7
100
AcDbLine
 10
12.5191144672
 20
5.7159590309
 30
0.0
 11
12.3291143954
 21
5.7159590309
 31
0.0
  0
LINE
  5
35F
330
1F
100
AcDbEntity
  8
0
  6
SLD-SOLID
 62
     7
100
AcDbLine
 10
12.3855548901
 20
5.7018139276
 30
0.0
 11
12.4946143769
 21
5.7018139276
 31
0.0
  0
LINE
  5
360
330
1F
100
AcDbEntity
  8
0
  6
SLD-SOLID
 62
     7
100
AcDbLine
 10
12.3536141924
 20
5.7018139276
 30
0.0
 11
12.3855548901
 21
5.7018139276
 31
0.0
  0
LINE
  5
361
330
1F
100
AcDbEntity
  8
0
  6
SLD-SOLID
 62
     7
100
AcDbLine
 10
12.5191144672
 20
5.7715145858
 30
0.0
 11
12.3291143954
 21
5.7715145858
 31
0.0
  0
LINE
  5
362
330
1F
100
AcDbEntity
  8
0
  6
SLD-SOLID
 62
     7
100
AcDbLine
 10
12.3855548901
 20
5.7573694825
 30
0.0
 11
12.4946143769
 21
5.7573694825
 31
0.0
  0
LINE
  5
363
330
1F
100
AcDbEntity
  8
0
  6
SLD-SOLID
 62
     7
100
AcDbLine
 10
12.3536141924
 20
5.7573694825
 30
0.0
 11
12.3855548901
 21
5.7573694825
 31
0.0
  0
LINE
  5
364
330
1F
100
AcDbEntity
  8
0
  6
SLD-SOLID
 62
     7
100
AcDbLine
 10
12.4946143769
 20
5.4523263231
 30
0.0
 11
12.3536141924
 21
5.4523263231
 31
0.0
  0
LINE
  5
365
330
1F
100
AcDbEntity
  8
0
  6
SLD-SOLID
 62
     7
100
AcDbLine
 10
12.5191144672
 20
5.4381812381
 30
0.0
 11
12.3291143954
 21
5.4381812381
 31
0.0
  0
LINE
  5
366
330
1F
100
AcDbEntity
  8
0
  6
SLD-SOLID
 62
     7
100
AcDbLine
 10
12.4946143769
 20
5.8967707621
 30
0.0
 11
12.3536141924
 21
5.8967707621
 31
0.0
  0
LINE
  5
367
330
1F
100
AcDbEntity
  8
0
  6
SLD-SOLID
 62
     7
100
AcDbLine
 10
12.5191144672
 20
5.8826256955
 30
0.0
 11
12.3291143954
 21
5.8826256955
 31
0.0
  0
LINE
  5
368
330
1F
100
AcDbEntity
  8
0
  6
SLD-SOLID
 62
     7
100
AcDbLine
 10
12.3855548901
 20
5.8684805923
 30
0.0
 11
12.4946143769
 21
5.8684805923
 31
0.0
  0
LINE
  5
369
330
1F
100
AcDbEntity
  8
0
  6
SLD-SOLID
 62
     7
100
AcDbLine
 10
12.3536141924
 20
5.8684805923
 30
0.0
 11
12.3855548901
 21
5.8684805923
 31
0.0
  0
LINE
  5
36A
330
1F
100
AcDbEntity
  8
0
  6
SLD-SOLID
 62
     7
100
AcDbLine
 10
12.4946143769
 20
5.9523263537
 30
0.0
 11
12.3536141924
 21
5.9523263537
 31
0.0
  0
LINE
  5
36B
330
1F
100
AcDbEntity
  8
0
  6
SLD-SOLID
 62
     7
100
AcDbLine
 10
12.3855548901
 20
5.4240361624
 30
0.0
 11
12.4946143769
 21
5.4240361624
 31
0.0
  0
LINE
  5
36C
330
1F
100
AcDbEntity
  8
0
  6
SLD-SOLID
 62
     7
100
AcDbLine
 10
12.3536141924
 20
5.4240361624
 30
0.0
 11
12.3855548901
 21
5.4240361624
 31
0.0
  0
LINE
  5
36D
330
1F
100
AcDbEntity
  8
0
  6
SLD-SOLID
 62
     7
100
AcDbLine
 10
12.5191144672
 20
5.660403476
 30
0.0
 11
12.3291143954
 21
5.660403476
 31
0.0
  0
LINE
  5
36E
330
1F
100
AcDbEntity
  8
0
  6
SLD-SOLID
 62
     7
100
AcDbLine
 10
12.3855548901
 20
5.6462583728
 30
0.0
 11
12.4946143769
 21
5.6462583728
 31
0.0
  0
LINE
  5
36F
330
1F
100
AcDbEntity
  8
0
  6
SLD-SOLID
 62
     7
100
AcDbLine
 10
12.3536141924
 20
5.6462583728
 30
0.0
 11
12.3855548901
 21
5.6462583728
 31
0.0
  0
LINE
  5
370
330
1F
100
AcDbEntity
  8
0
  6
SLD-SOLID
 62
     7
100
AcDbLine
 10
12.4946143769
 20
5.3412152133
 30
0.0
 11
12.3536141924
 21
5.3412152133
 31
0.0
  0
LINE
  5
371
330
1F
100
AcDbEntity
  8
0
  6
SLD-SOLID
 62
     7
100
AcDbLine
 10
12.5191144672
 20
5.3270701284
 30
0.0
 11
12.3291143954
 21
5.3270701284
 31
0.0
  0
LINE
  5
372
330
1F
100
AcDbEntity
  8
0
  6
SLD-SOLID
 62
     7
100
AcDbLine
 10
12.3855548901
 20
5.312925048
 30
0.0
 11
12.4946143769
 21
5.312925048
 31
0.0
  0
LINE
  5
373
330
1F
100
AcDbEntity
  8
0
  6
SLD-SOLID
 62
     7
100
AcDbLine
 10
12.3536141924
 20
5.312925048
 30
0.0
 11
12.3855548901
 21
5.312925048
 31
0.0
  0
LINE
  5
374
330
1F
100
AcDbEntity
  8
0
  6
SLD-SOLID
 62
     7
100
AcDbLine
 10
12.5191144672
 20
5.2159590186
 30
0.0
 11
12.3291143954
 21
5.2159590186
 31
0.0
  0
LINE
  5
375
330
1F
100
AcDbEntity
  8
0
  6
SLD-SOLID
 62
     7
100
AcDbLine
 10
12.3855548901
 20
5.2018139383
 30
0.0
 11
12.4946143769
 21
5.2018139383
 31
0.0
  0
LINE
  5
376
330
1F
100
AcDbEntity
  8
0
  6
SLD-SOLID
 62
     7
100
AcDbLine
 10
12.3536141924
 20
5.2018139383
 30
0.0
 11
12.3855548901
 21
5.2018139383
 31
0.0
  0
LINE
  5
377
330
1F
100
AcDbEntity
  8
0
  6
SLD-SOLID
 62
     7
100
AcDbLine
 10
12.5191144672
 20
5.6048479211
 30
0.0
 11
12.3291143954
 21
5.6048479211
 31
0.0
  0
LINE
  5
378
330
1F
100
AcDbEntity
  8
0
  6
SLD-SOLID
 62
     7
100
AcDbLine
 10
12.3855548901
 20
5.5907028179
 30
0.0
 11
12.4946143769
 21
5.5907028179
 31
0.0
  0
LINE
  5
379
330
1F
100
AcDbEntity
  8
0
  6
SLD-SOLID
 62
     7
100
AcDbLine
 10
12.3536141924
 20
5.5907028179
 30
0.0
 11
12.3855548901
 21
5.5907028179
 31
0.0
  0
LINE
  5
37A
330
1F
100
AcDbEntity
  8
0
  6
SLD-SOLID
 62
     7
100
AcDbLine
 10
12.3855548901
 20
5.535147263
 30
0.0
 11
12.4946143769
 21
5.535147263
 31
0.0
  0
LINE
  5
37B
330
1F
100
AcDbEntity
  8
0
  6
SLD-SOLID
 62
     7
100
AcDbLine
 10
12.3536141924
 20
5.535147263
 30
0.0
 11
12.3855548901
 21
5.535147263
 31
0.0
  0
LINE
  5
37C
330
1F
100
AcDbEntity
  8
0
  6
SLD-SOLID
 62
     7
100
AcDbLine
 10
12.5191144672
 20
5.1604034637
 30
0.0
 11
12.3291143954
 21
5.1604034637
 31
0.0
  0
LINE
  5
37D
330
1F
100
AcDbEntity
  8
0
  6
SLD-SOLID
 62
     7
100
AcDbLine
 10
12.3855548901
 20
5.1462583788
 30
0.0
 11
12.4946143769
 21
5.1462583788
 31
0.0
  0
LINE
  5
37E
330
1F
100
AcDbEntity
  8
0
  6
SLD-SOLID
 62
     7
100
AcDbLine
 10
12.3536141924
 20
5.1462583788
 30
0.0
 11
12.3855548901
 21
5.1462583788
 31
0.0
  0
LINE
  5
37F
330
1F
100
AcDbEntity
  8
0
  6
SLD-SOLID
 62
     7
100
AcDbLine
 10
12.4946143769
 20
5.8412152073
 30
0.0
 11
12.3536141924
 21
5.8412152073
 31
0.0
  0
LINE
  5
380
330
1F
100
AcDbEntity
  8
0
  6
SLD-SOLID
 62
     7
100
AcDbLine
 10
12.4946143769
 20
5.3967707682
 30
0.0
 11
12.3536141924
 21
5.3967707682
 31
0.0
  0
LINE
  5
381
330
1F
100
AcDbEntity
  8
0
  6
SLD-SOLID
 62
     7
100
AcDbLine
 10
12.5191144672
 20
5.3826256833
 30
0.0
 11
12.3291143954
 21
5.3826256833
 31
0.0
  0
LINE
  5
382
330
1F
100
AcDbEntity
  8
0
  6
SLD-SOLID
 62
     7
100
AcDbLine
 10
12.3855548901
 20
5.3684806075
 30
0.0
 11
12.4946143769
 21
5.3684806075
 31
0.0
  0
LINE
  5
383
330
1F
100
AcDbEntity
  8
0
  6
SLD-SOLID
 62
     7
100
AcDbLine
 10
12.3536141924
 20
5.3684806075
 30
0.0
 11
12.3855548901
 21
5.3684806075
 31
0.0
  0
LINE
  5
384
330
1F
100
AcDbEntity
  8
0
  6
SLD-SOLID
 62
     7
100
AcDbLine
 10
12.5191144672
 20
4.9381812259
 30
0.0
 11
12.3291143954
 21
4.9381812259
 31
0.0
  0
LINE
  5
385
330
1F
100
AcDbEntity
  8
0
  6
SLD-SOLID
 62
     7
100
AcDbLine
 10
12.3855548901
 20
4.9240361593
 30
0.0
 11
12.4946143769
 21
4.9240361593
 31
0.0
  0
LINE
  5
386
330
1F
100
AcDbEntity
  8
0
  6
SLD-SOLID
 62
     7
100
AcDbLine
 10
12.3536141924
 20
4.9240361593
 30
0.0
 11
12.3855548901
 21
4.9240361593
 31
0.0
  0
LINE
  5
387
330
1F
100
AcDbEntity
  8
0
  6
SLD-SOLID
 62
     7
100
AcDbLine
 10
12.4946143769
 20
5.7856596524
 30
0.0
 11
12.3536141924
 21
5.7856596524
 31
0.0
  0
LINE
  5
388
330
1F
100
AcDbEntity
  8
0
  6
SLD-SOLID
 62
     7
100
AcDbLine
 10
12.4946143769
 20
5.1745485486
 30
0.0
 11
12.3536141924
 21
5.1745485486
 31
0.0
  0
LINE
  5
389
330
1F
100
AcDbEntity
  8
0
  6
SLD-SOLID
 62
     7
100
AcDbLine
 10
12.4946143769
 20
5.230104099
 30
0.0
 11
12.3536141924
 21
5.230104099
 31
0.0
  0
LINE
  5
38A
330
1F
100
AcDbEntity
  8
0
  6
SLD-SOLID
 62
     7
100
AcDbLine
 10
12.5191144672
 20
5.2715145752
 30
0.0
 11
12.3291143954
 21
5.2715145752
 31
0.0
  0
LINE
  5
38B
330
1F
100
AcDbEntity
  8
0
  6
SLD-SOLID
 62
     7
100
AcDbLine
 10
12.3855548901
 20
5.2573694931
 30
0.0
 11
12.4946143769
 21
5.2573694931
 31
0.0
  0
LINE
  5
38C
330
1F
100
AcDbEntity
  8
0
  6
SLD-SOLID
 62
     7
100
AcDbLine
 10
12.3536141924
 20
5.2573694931
 30
0.0
 11
12.3855548901
 21
5.2573694931
 31
0.0
  0
LINE
  5
38D
330
1F
100
AcDbEntity
  8
0
  6
SLD-SOLID
 62
     7
100
AcDbLine
 10
12.4946143769
 20
5.2856596567
 30
0.0
 11
12.3536141924
 21
5.2856596567
 31
0.0
  0
LINE
  5
38E
330
1F
100
AcDbEntity
  8
0
  6
SLD-SOLID
 62
     7
100
AcDbLine
 10
12.4946143769
 20
5.6189929877
 30
0.0
 11
12.3536141924
 21
5.6189929877
 31
0.0
  0
LINE
  5
38F
330
1F
100
AcDbEntity
  8
0
  6
SLD-SOLID
 62
     7
100
AcDbLine
 10
12.4946143769
 20
4.9523263291
 30
0.0
 11
12.3536141924
 21
4.9523263291
 31
0.0
  0
LINE
  5
390
330
1F
100
AcDbEntity
  8
0
  6
SLD-SOLID
 62
     7
100
AcDbLine
 10
12.4946143769
 20
5.1189929938
 30
0.0
 11
12.3536141924
 21
5.1189929938
 31
0.0
  0
LINE
  5
391
330
1F
100
AcDbEntity
  8
0
  6
SLD-SOLID
 62
     7
100
AcDbLine
 10
12.4946143769
 20
5.6745485426
 30
0.0
 11
12.3536141924
 21
5.6745485426
 31
0.0
  0
LINE
  5
392
330
1F
100
AcDbEntity
  8
0
  6
SLD-SOLID
 62
     7
100
AcDbLine
 10
12.5191144672
 20
4.7715145612
 30
0.0
 11
12.3291143954
 21
4.7715145612
 31
0.0
  0
LINE
  5
393
330
1F
100
AcDbEntity
  8
0
  6
SLD-SOLID
 62
     7
100
AcDbLine
 10
12.3855548901
 20
4.7573694946
 30
0.0
 11
12.4946143769
 21
4.7573694946
 31
0.0
  0
LINE
  5
394
330
1F
100
AcDbEntity
  8
0
  6
SLD-SOLID
 62
     7
100
AcDbLine
 10
12.3536141924
 20
4.7573694946
 30
0.0
 11
12.3855548901
 21
4.7573694946
 31
0.0
  0
LINE
  5
395
330
1F
100
AcDbEntity
  8
0
  6
SLD-SOLID
 62
     7
100
AcDbLine
 10
12.4946143769
 20
4.6189929631
 30
0.0
 11
12.3536141924
 21
4.6189929631
 31
0.0
  0
LINE
  5
396
330
1F
100
AcDbEntity
  8
0
  6
SLD-SOLID
 62
     7
100
AcDbLine
 10
12.5191144672
 20
4.6048479332
 30
0.0
 11
12.3291143954
 21
4.6048479332
 31
0.0
  0
LINE
  5
397
330
1F
100
AcDbEntity
  8
0
  6
SLD-SOLID
 62
     7
100
AcDbLine
 10
12.4946143769
 20
4.5634374449
 30
0.0
 11
12.3536141924
 21
4.5634374449
 31
0.0
  0
LINE
  5
398
330
1F
100
AcDbEntity
  8
0
  6
SLD-SOLID
 62
     7
100
AcDbLine
 10
12.4946143769
 20
4.6745485547
 30
0.0
 11
12.3536141924
 21
4.6745485547
 31
0.0
  0
LINE
  5
399
330
1F
100
AcDbEntity
  8
0
  6
SLD-SOLID
 62
     7
100
AcDbLine
 10
12.5191144672
 20
4.6604034514
 30
0.0
 11
12.3291143954
 21
4.6604034514
 31
0.0
  0
LINE
  5
39A
330
1F
100
AcDbEntity
  8
0
  6
SLD-SOLID
 62
     7
100
AcDbLine
 10
12.3855548901
 20
4.6462583482
 30
0.0
 11
12.4946143769
 21
4.6462583482
 31
0.0
  0
LINE
  5
39B
330
1F
100
AcDbEntity
  8
0
  6
SLD-SOLID
 62
     7
100
AcDbLine
 10
12.3536141924
 20
4.6462583482
 30
0.0
 11
12.3855548901
 21
4.6462583482
 31
0.0
  0
LINE
  5
39C
330
1F
100
AcDbEntity
  8
0
  6
SLD-SOLID
 62
     7
100
AcDbLine
 10
12.3855548901
 20
4.59070283
 30
0.0
 11
12.4946143769
 21
4.59070283
 31
0.0
  0
LINE
  5
39D
330
1F
100
AcDbEntity
  8
0
  6
SLD-SOLID
 62
     7
100
AcDbLine
 10
12.3536141924
 20
4.59070283
 30
0.0
 11
12.3855548901
 21
4.59070283
 31
0.0
  0
LINE
  5
39E
330
1F
100
AcDbEntity
  8
0
  6
SLD-SOLID
 62
     7
100
AcDbLine
 10
12.5191144672
 20
4.7159590063
 30
0.0
 11
12.3291143954
 21
4.7159590063
 31
0.0
  0
LINE
  5
39F
330
1F
100
AcDbEntity
  8
0
  6
SLD-SOLID
 62
     7
100
AcDbLine
 10
12.3855548901
 20
4.7018139397
 30
0.0
 11
12.4946143769
 21
4.7018139397
 31
0.0
  0
LINE
  5
3A0
330
1F
100
AcDbEntity
  8
0
  6
SLD-SOLID
 62
     7
100
AcDbLine
 10
12.3536141924
 20
4.7018139397
 30
0.0
 11
12.3855548901
 21
4.7018139397
 31
0.0
  0
LINE
  5
3A1
330
1F
100
AcDbEntity
  8
0
  6
SLD-SOLID
 62
     7
100
AcDbLine
 10
12.4946143769
 20
4.7301041096
 30
0.0
 11
12.3536141924
 21
4.7301041096
 31
0.0
  0
LINE
  5
3A2
330
1F
100
AcDbEntity
  8
0
  6
SLD-SOLID
 62
     7
100
AcDbLine
 10
12.4946143769
 20
6.7679792512
 30
0.0
 11
12.3536141924
 21
6.7679792512
 31
0.0
  0
LINE
  5
3A3
330
1F
100
AcDbEntity
  8
0
  6
SLD-SOLID
 62
     7
100
AcDbLine
 10
12.3843762904
 20
4.3404865938
 30
0.0
 11
12.3829653733
 21
4.3305583285
 31
0.0
  0
LINE
  5
3A4
330
1F
100
AcDbEntity
  8
0
  6
SLD-SOLID
 62
     7
100
AcDbLine
 10
12.4647528018
 20
4.3341498603
 30
0.0
 11
12.4652631959
 21
4.3305583285
 31
0.0
  0
LINE
  5
3A5
330
1F
100
AcDbEntity
  8
0
  6
SLD-SOLID
 62
     7
100
AcDbLine
 10
12.4155508102
 20
4.3327289701
 30
0.0
 11
12.4154859843
 21
4.3305583285
 31
0.0
  0
ARC
  5
3A6
330
1F
100
AcDbEntity
  8
0
  6
SLD-SOLID
 62
     7
100
AcDbCircle
 10
6.0157929021
 20
4.5086233403
 30
0.0
 40
0.1787357856507883
100
AcDbArc
 50
274.96541853
 51
290.4678214602
  0
ARC
  5
3A7
330
1F
100
AcDbEntity
  8
0
  6
SLD-SOLID
 62
     7
100
AcDbCircle
 10
6.0710493824
 20
4.4523624245
 30
0.0
 40
0.1114267771884313
100
AcDbArc
 50
266.2724585324
 51
273.7275414676
  0
ARC
  5
3A8
330
1F
100
AcDbEntity
  8
0
  6
SLD-SOLID
 62
     7
100
AcDbCircle
 10
5.9770632259
 20
4.668200705
 30
0.0
 40
0.338337660847487
100
AcDbArc
 50
273.6738218037
 51
284.8552092135
  0
ARC
  5
3A9
330
1F
100
AcDbEntity
  8
0
  6
SLD-SOLID
 62
     7
100
AcDbCircle
 10
6.016691389
 20
4.5408856821
 30
0.0
 40
0.2110918098040865
100
AcDbArc
 50
251.1028818771
 51
265.1223640573
  0
ARC
  5
3AA
330
1F
100
AcDbEntity
  8
0
  6
SLD-SOLID
 62
     7
100
AcDbCircle
 10
5.9372372483
 20
4.601801141
 30
0.0
 40
0.2608655153923301
100
AcDbArc
 50
267.5639566433
 51
272.4360433567
  0
ARC
  5
3AB
330
1F
100
AcDbEntity
  8
0
  6
SLD-SOLID
 62
     7
100
AcDbCircle
 10
5.9585345845
 20
4.3809618814
 30
0.0
 40
0.0513038623860528
100
AcDbArc
 50
230.8581056082
 51
259.2503165313
  0
ARC
  5
3AC
330
1F
100
AcDbEntity
  8
0
  6
SLD-SOLID
 62
     7
100
AcDbCircle
 10
6.0028416348
 20
4.6653382616
 30
0.0
 40
0.3354603757646935
100
AcDbArc
 50
260.8463709928
 51
266.3500557216
  0
LWPOLYLINE
  5
3AD
330
1F
100
AcDbEntity
  8
0
  6
SLD-SOLID
 62
     7
100
AcDbPolyline
 90
        3
 70
   128
 43
0.0
 10
5.9814860704
 20
4.3305583285
 10
5.9877950109
 20
4.3311811413
 10
5.9901143708
 20
4.3314607581
  0
LINE
  5
3AE
330
1F
100
AcDbEntity
  8
0
  6
SLD-SOLID
 62
     7
100
AcDbLine
 10
6.060614463
 20
6.285659683
 30
0.0
 11
5.9196142785
 21
6.285659683
 31
0.0
  0
LINE
  5
3AF
330
1F
100
AcDbEntity
  8
0
  6
SLD-SOLID
 62
     7
100
AcDbLine
 10
6.08511426
 20
6.2715145797
 30
0.0
 11
5.8951141882
 21
6.2715145797
 31
0.0
  0
LINE
  5
3B0
330
1F
100
AcDbEntity
  8
0
  6
SLD-SOLID
 62
     7
100
AcDbLine
 10
6.08511426
 20
6.6604034273
 30
0.0
 11
5.8951141882
 21
6.6604034273
 31
0.0
  0
LINE
  5
3B1
330
1F
100
AcDbEntity
  8
0
  6
SLD-SOLID
 62
     7
100
AcDbLine
 10
5.9515546829
 20
6.646258324
 30
0.0
 11
6.060614463
 21
6.646258324
 31
0.0
  0
LINE
  5
3B2
330
1F
100
AcDbEntity
  8
0
  6
SLD-SOLID
 62
     7
100
AcDbLine
 10
5.9196142785
 20
6.646258324
 30
0.0
 11
5.9515546829
 21
6.646258324
 31
0.0
  0
LINE
  5
3B3
330
1F
100
AcDbEntity
  8
0
  6
SLD-SOLID
 62
     7
100
AcDbLine
 10
6.08511426
 20
6.3826256895
 30
0.0
 11
5.8951141882
 21
6.3826256895
 31
0.0
  0
LINE
  5
3B4
330
1F
100
AcDbEntity
  8
0
  6
SLD-SOLID
 62
     7
100
AcDbLine
 10
5.9515546829
 20
6.3684805862
 30
0.0
 11
6.060614463
 21
6.3684805862
 31
0.0
  0
LINE
  5
3B5
330
1F
100
AcDbEntity
  8
0
  6
SLD-SOLID
 62
     7
100
AcDbLine
 10
5.9196142785
 20
6.3684805862
 30
0.0
 11
5.9515546829
 21
6.3684805862
 31
0.0
  0
LINE
  5
3B6
330
1F
100
AcDbEntity
  8
0
  6
SLD-SOLID
 62
     7
100
AcDbLine
 10
6.060614463
 20
6.6189930123
 30
0.0
 11
5.9196142785
 21
6.6189930123
 31
0.0
  0
LINE
  5
3B7
330
1F
100
AcDbEntity
  8
0
  6
SLD-SOLID
 62
     7
100
AcDbLine
 10
6.08511426
 20
6.604847909
 30
0.0
 11
5.8951141882
 21
6.604847909
 31
0.0
  0
LINE
  5
3B8
330
1F
100
AcDbEntity
  8
0
  6
SLD-SOLID
 62
     7
100
AcDbLine
 10
5.9515546829
 20
6.2573694765
 30
0.0
 11
6.060614463
 21
6.2573694765
 31
0.0
  0
LINE
  5
3B9
330
1F
100
AcDbEntity
  8
0
  6
SLD-SOLID
 62
     7
100
AcDbLine
 10
5.9196142785
 20
6.2573694765
 30
0.0
 11
5.9515546829
 21
6.2573694765
 31
0.0
  0
LINE
  5
3BA
330
1F
100
AcDbEntity
  8
0
  6
SLD-SOLID
 62
     7
100
AcDbLine
 10
6.08511426
 20
6.7159590921
 30
0.0
 11
5.8951141882
 21
6.7159590921
 31
0.0
  0
LINE
  5
3BB
330
1F
100
AcDbEntity
  8
0
  6
SLD-SOLID
 62
     7
100
AcDbLine
 10
5.9515546829
 20
6.7018139889
 30
0.0
 11
6.060614463
 21
6.7018139889
 31
0.0
  0
LINE
  5
3BC
330
1F
100
AcDbEntity
  8
0
  6
SLD-SOLID
 62
     7
100
AcDbLine
 10
5.9196142785
 20
6.7018139889
 30
0.0
 11
5.9515546829
 21
6.7018139889
 31
0.0
  0
LINE
  5
3BD
330
1F
100
AcDbEntity
  8
0
  6
SLD-SOLID
 62
     7
100
AcDbLine
 10
6.060614463
 20
6.3412152012
 30
0.0
 11
5.9196142785
 21
6.3412152012
 31
0.0
  0
LINE
  5
3BE
330
1F
100
AcDbEntity
  8
0
  6
SLD-SOLID
 62
     7
100
AcDbLine
 10
6.08511426
 20
6.327070098
 30
0.0
 11
5.8951141882
 21
6.327070098
 31
0.0
  0
LINE
  5
3BF
330
1F
100
AcDbEntity
  8
0
  6
SLD-SOLID
 62
     7
100
AcDbLine
 10
5.9515546829
 20
6.312925068
 30
0.0
 11
6.060614463
 21
6.312925068
 31
0.0
  0
LINE
  5
3C0
330
1F
100
AcDbEntity
  8
0
  6
SLD-SOLID
 62
     7
100
AcDbLine
 10
5.9196142785
 20
6.312925068
 30
0.0
 11
5.9515546829
 21
6.312925068
 31
0.0
  0
LINE
  5
3C1
330
1F
100
AcDbEntity
  8
0
  6
SLD-SOLID
 62
     7
100
AcDbLine
 10
6.08511426
 20
6.4937367993
 30
0.0
 11
5.8951141882
 21
6.4937367993
 31
0.0
  0
LINE
  5
3C2
330
1F
100
AcDbEntity
  8
0
  6
SLD-SOLID
 62
     7
100
AcDbLine
 10
5.9515546829
 20
6.479591696
 30
0.0
 11
6.060614463
 21
6.479591696
 31
0.0
  0
LINE
  5
3C3
330
1F
100
AcDbEntity
  8
0
  6
SLD-SOLID
 62
     7
100
AcDbLine
 10
5.9196142785
 20
6.479591696
 30
0.0
 11
5.9515546829
 21
6.479591696
 31
0.0
  0
LINE
  5
3C4
330
1F
100
AcDbEntity
  8
0
  6
SLD-SOLID
 62
     7
100
AcDbLine
 10
6.060614463
 20
6.5078818292
 30
0.0
 11
5.9196142785
 21
6.5078818292
 31
0.0
  0
LINE
  5
3C5
330
1F
100
AcDbEntity
  8
0
  6
SLD-SOLID
 62
     7
100
AcDbLine
 10
5.9515546829
 20
6.5907028058
 30
0.0
 11
6.060614463
 21
6.5907028058
 31
0.0
  0
LINE
  5
3C6
330
1F
100
AcDbEntity
  8
0
  6
SLD-SOLID
 62
     7
100
AcDbLine
 10
5.9196142785
 20
6.5907028058
 30
0.0
 11
5.9515546829
 21
6.5907028058
 31
0.0
  0
LINE
  5
3C7
330
1F
100
AcDbEntity
  8
0
  6
SLD-SOLID
 62
     7
100
AcDbLine
 10
6.060614463
 20
6.6745485305
 30
0.0
 11
5.9196142785
 21
6.6745485305
 31
0.0
  0
LINE
  5
3C8
330
1F
100
AcDbEntity
  8
0
  6
SLD-SOLID
 62
     7
100
AcDbLine
 10
6.060614463
 20
6.7301040487
 30
0.0
 11
5.9196142785
 21
6.7301040487
 31
0.0
  0
LINE
  5
3C9
330
1F
100
AcDbEntity
  8
0
  6
SLD-SOLID
 62
     7
100
AcDbLine
 10
6.060614463
 20
6.5634374941
 30
0.0
 11
5.9196142785
 21
6.5634374941
 31
0.0
  0
LINE
  5
3CA
330
1F
100
AcDbEntity
  8
0
  6
SLD-SOLID
 62
     7
100
AcDbLine
 10
6.08511426
 20
6.5492923908
 30
0.0
 11
5.8951141882
 21
6.5492923908
 31
0.0
  0
LINE
  5
3CB
330
1F
100
AcDbEntity
  8
0
  6
SLD-SOLID
 62
     7
100
AcDbLine
 10
5.9515546829
 20
6.5351472876
 30
0.0
 11
6.060614463
 21
6.5351472876
 31
0.0
  0
LINE
  5
3CC
330
1F
100
AcDbEntity
  8
0
  6
SLD-SOLID
 62
     7
100
AcDbLine
 10
5.9196142785
 20
6.5351472876
 30
0.0
 11
5.9515546829
 21
6.5351472876
 31
0.0
  0
LINE
  5
3CD
330
1F
100
AcDbEntity
  8
0
  6
SLD-SOLID
 62
     7
100
AcDbLine
 10
6.060614463
 20
6.3967707928
 30
0.0
 11
5.9196142785
 21
6.3967707928
 31
0.0
  0
LINE
  5
3CE
330
1F
100
AcDbEntity
  8
0
  6
SLD-SOLID
 62
     7
100
AcDbLine
 10
6.08511426
 20
6.4381812077
 30
0.0
 11
5.8951141882
 21
6.4381812077
 31
0.0
  0
LINE
  5
3CF
330
1F
100
AcDbEntity
  8
0
  6
SLD-SOLID
 62
     7
100
AcDbLine
 10
5.9515546829
 20
6.4240361778
 30
0.0
 11
6.060614463
 21
6.4240361778
 31
0.0
  0
LINE
  5
3D0
330
1F
100
AcDbEntity
  8
0
  6
SLD-SOLID
 62
     7
100
AcDbLine
 10
5.9196142785
 20
6.4240361778
 30
0.0
 11
5.9515546829
 21
6.4240361778
 31
0.0
  0
LINE
  5
3D1
330
1F
100
AcDbEntity
  8
0
  6
SLD-SOLID
 62
     7
100
AcDbLine
 10
6.060614463
 20
6.452326311
 30
0.0
 11
5.9196142785
 21
6.452326311
 31
0.0
  0
LINE
  5
3D2
330
1F
100
AcDbEntity
  8
0
  6
SLD-SOLID
 62
     7
100
AcDbLine
 10
6.060614463
 20
5.1189929938
 30
0.0
 11
5.9196142785
 21
5.1189929938
 31
0.0
  0
LINE
  5
3D3
330
1F
100
AcDbEntity
  8
0
  6
SLD-SOLID
 62
     7
100
AcDbLine
 10
6.08511426
 20
5.1048479088
 30
0.0
 11
5.8951141882
 21
5.1048479088
 31
0.0
  0
LINE
  5
3D4
330
1F
100
AcDbEntity
  8
0
  6
SLD-SOLID
 62
     7
100
AcDbLine
 10
6.08511426
 20
5.493736793
 30
0.0
 11
5.8951141882
 21
5.493736793
 31
0.0
  0
LINE
  5
3D5
330
1F
100
AcDbEntity
  8
0
  6
SLD-SOLID
 62
     7
100
AcDbLine
 10
5.9515546829
 20
5.4795917081
 30
0.0
 11
6.060614463
 21
5.4795917081
 31
0.0
  0
LINE
  5
3D6
330
1F
100
AcDbEntity
  8
0
  6
SLD-SOLID
 62
     7
100
AcDbLine
 10
5.9196142785
 20
5.4795917081
 30
0.0
 11
5.9515546829
 21
5.4795917081
 31
0.0
  0
LINE
  5
3D7
330
1F
100
AcDbEntity
  8
0
  6
SLD-SOLID
 62
     7
100
AcDbLine
 10
6.060614463
 20
5.507881878
 30
0.0
 11
5.9196142785
 21
5.507881878
 31
0.0
  0
LINE
  5
3D8
330
1F
100
AcDbEntity
  8
0
  6
SLD-SOLID
 62
     7
100
AcDbLine
 10
6.08511426
 20
5.8826256955
 30
0.0
 11
5.8951141882
 21
5.8826256955
 31
0.0
  0
LINE
  5
3D9
330
1F
100
AcDbEntity
  8
0
  6
SLD-SOLID
 62
     7
100
AcDbLine
 10
5.9515546829
 20
5.8684805923
 30
0.0
 11
6.060614463
 21
5.8684805923
 31
0.0
  0
LINE
  5
3DA
330
1F
100
AcDbEntity
  8
0
  6
SLD-SOLID
 62
     7
100
AcDbLine
 10
5.9196142785
 20
5.8684805923
 30
0.0
 11
5.9515546829
 21
5.8684805923
 31
0.0
  0
LINE
  5
3DB
330
1F
100
AcDbEntity
  8
0
  6
SLD-SOLID
 62
     7
100
AcDbLine
 10
6.060614463
 20
5.7856596524
 30
0.0
 11
5.9196142785
 21
5.7856596524
 31
0.0
  0
LINE
  5
3DC
330
1F
100
AcDbEntity
  8
0
  6
SLD-SOLID
 62
     7
100
AcDbLine
 10
6.08511426
 20
5.7715145858
 30
0.0
 11
5.8951141882
 21
5.7715145858
 31
0.0
  0
LINE
  5
3DD
330
1F
100
AcDbEntity
  8
0
  6
SLD-SOLID
 62
     7
100
AcDbLine
 10
6.060614463
 20
5.0634374389
 30
0.0
 11
5.9196142785
 21
5.0634374389
 31
0.0
  0
LINE
  5
3DE
330
1F
100
AcDbEntity
  8
0
  6
SLD-SOLID
 62
     7
100
AcDbLine
 10
6.08511426
 20
5.049292354
 30
0.0
 11
5.8951141882
 21
5.049292354
 31
0.0
  0
LINE
  5
3DF
330
1F
100
AcDbEntity
  8
0
  6
SLD-SOLID
 62
     7
100
AcDbLine
 10
6.060614463
 20
5.4523263231
 30
0.0
 11
5.9196142785
 21
5.4523263231
 31
0.0
  0
LINE
  5
3E0
330
1F
100
AcDbEntity
  8
0
  6
SLD-SOLID
 62
     7
100
AcDbLine
 10
6.08511426
 20
5.4381812381
 30
0.0
 11
5.8951141882
 21
5.4381812381
 31
0.0
  0
LINE
  5
3E1
330
1F
100
AcDbEntity
  8
0
  6
SLD-SOLID
 62
     7
100
AcDbLine
 10
6.08511426
 20
5.8270701407
 30
0.0
 11
5.8951141882
 21
5.8270701407
 31
0.0
  0
LINE
  5
3E2
330
1F
100
AcDbEntity
  8
0
  6
SLD-SOLID
 62
     7
100
AcDbLine
 10
5.9515546829
 20
5.8129250374
 30
0.0
 11
6.060614463
 21
5.8129250374
 31
0.0
  0
LINE
  5
3E3
330
1F
100
AcDbEntity
  8
0
  6
SLD-SOLID
 62
     7
100
AcDbLine
 10
5.9196142785
 20
5.8129250374
 30
0.0
 11
5.9515546829
 21
5.8129250374
 31
0.0
  0
LINE
  5
3E4
330
1F
100
AcDbEntity
  8
0
  6
SLD-SOLID
 62
     7
100
AcDbLine
 10
5.9515546829
 20
5.035147269
 30
0.0
 11
6.060614463
 21
5.035147269
 31
0.0
  0
LINE
  5
3E5
330
1F
100
AcDbEntity
  8
0
  6
SLD-SOLID
 62
     7
100
AcDbLine
 10
5.9196142785
 20
5.035147269
 30
0.0
 11
5.9515546829
 21
5.035147269
 31
0.0
  0
LINE
  5
3E6
330
1F
100
AcDbEntity
  8
0
  6
SLD-SOLID
 62
     7
100
AcDbLine
 10
6.08511426
 20
4.9937367991
 30
0.0
 11
5.8951141882
 21
4.9937367991
 31
0.0
  0
LINE
  5
3E7
330
1F
100
AcDbEntity
  8
0
  6
SLD-SOLID
 62
     7
100
AcDbLine
 10
5.9515546829
 20
4.9795917141
 30
0.0
 11
6.060614463
 21
4.9795917141
 31
0.0
  0
LINE
  5
3E8
330
1F
100
AcDbEntity
  8
0
  6
SLD-SOLID
 62
     7
100
AcDbLine
 10
5.9196142785
 20
4.9795917141
 30
0.0
 11
5.9515546829
 21
4.9795917141
 31
0.0
  0
LINE
  5
3E9
330
1F
100
AcDbEntity
  8
0
  6
SLD-SOLID
 62
     7
100
AcDbLine
 10
6.060614463
 20
5.8412152073
 30
0.0
 11
5.9196142785
 21
5.8412152073
 31
0.0
  0
LINE
  5
3EA
330
1F
100
AcDbEntity
  8
0
  6
SLD-SOLID
 62
     7
100
AcDbLine
 10
6.08511426
 20
5.2715145752
 30
0.0
 11
5.8951141882
 21
5.2715145752
 31
0.0
  0
LINE
  5
3EB
330
1F
100
AcDbEntity
  8
0
  6
SLD-SOLID
 62
     7
100
AcDbLine
 10
5.9515546829
 20
5.2573694931
 30
0.0
 11
6.060614463
 21
5.2573694931
 31
0.0
  0
LINE
  5
3EC
330
1F
100
AcDbEntity
  8
0
  6
SLD-SOLID
 62
     7
100
AcDbLine
 10
5.9196142785
 20
5.2573694931
 30
0.0
 11
5.9515546829
 21
5.2573694931
 31
0.0
  0
LINE
  5
3ED
330
1F
100
AcDbEntity
  8
0
  6
SLD-SOLID
 62
     7
100
AcDbLine
 10
6.060614463
 20
5.007881884
 30
0.0
 11
5.9196142785
 21
5.007881884
 31
0.0
  0
LINE
  5
3EE
330
1F
100
AcDbEntity
  8
0
  6
SLD-SOLID
 62
     7
100
AcDbLine
 10
5.9515546829
 20
5.4240361624
 30
0.0
 11
6.060614463
 21
5.4240361624
 31
0.0
  0
LINE
  5
3EF
330
1F
100
AcDbEntity
  8
0
  6
SLD-SOLID
 62
     7
100
AcDbLine
 10
5.9196142785
 20
5.4240361624
 30
0.0
 11
5.9515546829
 21
5.4240361624
 31
0.0
  0
LINE
  5
3F0
330
1F
100
AcDbEntity
  8
0
  6
SLD-SOLID
 62
     7
100
AcDbLine
 10
6.060614463
 20
5.6745485426
 30
0.0
 11
5.9196142785
 21
5.6745485426
 31
0.0
  0
LINE
  5
3F1
330
1F
100
AcDbEntity
  8
0
  6
SLD-SOLID
 62
     7
100
AcDbLine
 10
6.08511426
 20
5.660403476
 30
0.0
 11
5.8951141882
 21
5.660403476
 31
0.0
  0
LINE
  5
3F2
330
1F
100
AcDbEntity
  8
0
  6
SLD-SOLID
 62
     7
100
AcDbLine
 10
6.060614463
 20
5.8967707621
 30
0.0
 11
5.9196142785
 21
5.8967707621
 31
0.0
  0
LINE
  5
3F3
330
1F
100
AcDbEntity
  8
0
  6
SLD-SOLID
 62
     7
100
AcDbLine
 10
6.060614463
 20
5.3967707682
 30
0.0
 11
5.9196142785
 21
5.3967707682
 31
0.0
  0
LINE
  5
3F4
330
1F
100
AcDbEntity
  8
0
  6
SLD-SOLID
 62
     7
100
AcDbLine
 10
6.08511426
 20
5.3826256833
 30
0.0
 11
5.8951141882
 21
5.3826256833
 31
0.0
  0
LINE
  5
3F5
330
1F
100
AcDbEntity
  8
0
  6
SLD-SOLID
 62
     7
100
AcDbLine
 10
6.060614463
 20
5.7301040975
 30
0.0
 11
5.9196142785
 21
5.7301040975
 31
0.0
  0
LINE
  5
3F6
330
1F
100
AcDbEntity
  8
0
  6
SLD-SOLID
 62
     7
100
AcDbLine
 10
6.08511426
 20
5.7159590309
 30
0.0
 11
5.8951141882
 21
5.7159590309
 31
0.0
  0
LINE
  5
3F7
330
1F
100
AcDbEntity
  8
0
  6
SLD-SOLID
 62
     7
100
AcDbLine
 10
6.060614463
 20
5.3412152133
 30
0.0
 11
5.9196142785
 21
5.3412152133
 31
0.0
  0
LINE
  5
3F8
330
1F
100
AcDbEntity
  8
0
  6
SLD-SOLID
 62
     7
100
AcDbLine
 10
6.08511426
 20
5.3270701284
 30
0.0
 11
5.8951141882
 21
5.3270701284
 31
0.0
  0
LINE
  5
3F9
330
1F
100
AcDbEntity
  8
0
  6
SLD-SOLID
 62
     7
100
AcDbLine
 10
6.08511426
 20
4.7715145612
 30
0.0
 11
5.8951141882
 21
4.7715145612
 31
0.0
  0
LINE
  5
3FA
330
1F
100
AcDbEntity
  8
0
  6
SLD-SOLID
 62
     7
100
AcDbLine
 10
5.9515546829
 20
5.6462583728
 30
0.0
 11
6.060614463
 21
5.6462583728
 31
0.0
  0
LINE
  5
3FB
330
1F
100
AcDbEntity
  8
0
  6
SLD-SOLID
 62
     7
100
AcDbLine
 10
5.9196142785
 20
5.6462583728
 30
0.0
 11
5.9515546829
 21
5.6462583728
 31
0.0
  0
LINE
  5
3FC
330
1F
100
AcDbEntity
  8
0
  6
SLD-SOLID
 62
     7
100
AcDbLine
 10
5.9515546829
 20
5.0907028239
 30
0.0
 11
6.060614463
 21
5.0907028239
 31
0.0
  0
LINE
  5
3FD
330
1F
100
AcDbEntity
  8
0
  6
SLD-SOLID
 62
     7
100
AcDbLine
 10
5.9196142785
 20
5.0907028239
 30
0.0
 11
5.9515546829
 21
5.0907028239
 31
0.0
  0
LINE
  5
3FE
330
1F
100
AcDbEntity
  8
0
  6
SLD-SOLID
 62
     7
100
AcDbLine
 10
6.08511426
 20
4.9381812259
 30
0.0
 11
5.8951141882
 21
4.9381812259
 31
0.0
  0
LINE
  5
3FF
330
1F
100
AcDbEntity
  8
0
  6
SLD-SOLID
 62
     7
100
AcDbLine
 10
5.9515546829
 20
4.9240361593
 30
0.0
 11
6.060614463
 21
4.9240361593
 31
0.0
  0
LINE
  5
400
330
1F
100
AcDbEntity
  8
0
  6
SLD-SOLID
 62
     7
100
AcDbLine
 10
5.9196142785
 20
4.9240361593
 30
0.0
 11
5.9515546829
 21
4.9240361593
 31
0.0
  0
LINE
  5
401
330
1F
100
AcDbEntity
  8
0
  6
SLD-SOLID
 62
     7
100
AcDbLine
 10
6.060614463
 20
5.230104099
 30
0.0
 11
5.9196142785
 21
5.230104099
 31
0.0
  0
LINE
  5
402
330
1F
100
AcDbEntity
  8
0
  6
SLD-SOLID
 62
     7
100
AcDbLine
 10
6.08511426
 20
5.2159590186
 30
0.0
 11
5.8951141882
 21
5.2159590186
 31
0.0
  0
LINE
  5
403
330
1F
100
AcDbEntity
  8
0
  6
SLD-SOLID
 62
     7
100
AcDbLine
 10
6.060614463
 20
4.9523263291
 30
0.0
 11
5.9196142785
 21
4.9523263291
 31
0.0
  0
LINE
  5
404
330
1F
100
AcDbEntity
  8
0
  6
SLD-SOLID
 62
     7
100
AcDbLine
 10
5.9515546829
 20
5.3684806075
 30
0.0
 11
6.060614463
 21
5.3684806075
 31
0.0
  0
LINE
  5
405
330
1F
100
AcDbEntity
  8
0
  6
SLD-SOLID
 62
     7
100
AcDbLine
 10
5.9196142785
 20
5.3684806075
 30
0.0
 11
5.9515546829
 21
5.3684806075
 31
0.0
  0
LINE
  5
406
330
1F
100
AcDbEntity
  8
0
  6
SLD-SOLID
 62
     7
100
AcDbLine
 10
5.9515546829
 20
5.312925048
 30
0.0
 11
6.060614463
 21
5.312925048
 31
0.0
  0
LINE
  5
407
330
1F
100
AcDbEntity
  8
0
  6
SLD-SOLID
 62
     7
100
AcDbLine
 10
5.9196142785
 20
5.312925048
 30
0.0
 11
5.9515546829
 21
5.312925048
 31
0.0
  0
LINE
  5
408
330
1F
100
AcDbEntity
  8
0
  6
SLD-SOLID
 62
     7
100
AcDbLine
 10
6.060614463
 20
5.5634374328
 30
0.0
 11
5.9196142785
 21
5.5634374328
 31
0.0
  0
LINE
  5
409
330
1F
100
AcDbEntity
  8
0
  6
SLD-SOLID
 62
     7
100
AcDbLine
 10
6.08511426
 20
5.5492923479
 30
0.0
 11
5.8951141882
 21
5.5492923479
 31
0.0
  0
LINE
  5
40A
330
1F
100
AcDbEntity
  8
0
  6
SLD-SOLID
 62
     7
100
AcDbLine
 10
6.060614463
 20
5.1745485486
 30
0.0
 11
5.9196142785
 21
5.1745485486
 31
0.0
  0
LINE
  5
40B
330
1F
100
AcDbEntity
  8
0
  6
SLD-SOLID
 62
     7
100
AcDbLine
 10
6.08511426
 20
5.1604034637
 30
0.0
 11
5.8951141882
 21
5.1604034637
 31
0.0
  0
LINE
  5
40C
330
1F
100
AcDbEntity
  8
0
  6
SLD-SOLID
 62
     7
100
AcDbLine
 10
5.9515546829
 20
5.7573694825
 30
0.0
 11
6.060614463
 21
5.7573694825
 31
0.0
  0
LINE
  5
40D
330
1F
100
AcDbEntity
  8
0
  6
SLD-SOLID
 62
     7
100
AcDbLine
 10
5.9196142785
 20
5.7573694825
 30
0.0
 11
5.9515546829
 21
5.7573694825
 31
0.0
  0
LINE
  5
40E
330
1F
100
AcDbEntity
  8
0
  6
SLD-SOLID
 62
     7
100
AcDbLine
 10
6.060614463
 20
5.6189929877
 30
0.0
 11
5.9196142785
 21
5.6189929877
 31
0.0
  0
LINE
  5
40F
330
1F
100
AcDbEntity
  8
0
  6
SLD-SOLID
 62
     7
100
AcDbLine
 10
6.08511426
 20
5.6048479211
 30
0.0
 11
5.8951141882
 21
5.6048479211
 31
0.0
  0
LINE
  5
410
330
1F
100
AcDbEntity
  8
0
  6
SLD-SOLID
 62
     7
100
AcDbLine
 10
5.9515546829
 20
4.7573694946
 30
0.0
 11
6.060614463
 21
4.7573694946
 31
0.0
  0
LINE
  5
411
330
1F
100
AcDbEntity
  8
0
  6
SLD-SOLID
 62
     7
100
AcDbLine
 10
5.9196142785
 20
4.7573694946
 30
0.0
 11
5.9515546829
 21
4.7573694946
 31
0.0
  0
LINE
  5
412
330
1F
100
AcDbEntity
  8
0
  6
SLD-SOLID
 62
     7
100
AcDbLine
 10
6.060614463
 20
5.2856596567
 30
0.0
 11
5.9196142785
 21
5.2856596567
 31
0.0
  0
LINE
  5
413
330
1F
100
AcDbEntity
  8
0
  6
SLD-SOLID
 62
     7
100
AcDbLine
 10
5.9515546829
 20
5.7018139276
 30
0.0
 11
6.060614463
 21
5.7018139276
 31
0.0
  0
LINE
  5
414
330
1F
100
AcDbEntity
  8
0
  6
SLD-SOLID
 62
     7
100
AcDbLine
 10
5.9196142785
 20
5.7018139276
 30
0.0
 11
5.9515546829
 21
5.7018139276
 31
0.0
  0
LINE
  5
415
330
1F
100
AcDbEntity
  8
0
  6
SLD-SOLID
 62
     7
100
AcDbLine
 10
5.9515546829
 20
5.1462583788
 30
0.0
 11
6.060614463
 21
5.1462583788
 31
0.0
  0
LINE
  5
416
330
1F
100
AcDbEntity
  8
0
  6
SLD-SOLID
 62
     7
100
AcDbLine
 10
5.9196142785
 20
5.1462583788
 30
0.0
 11
5.9515546829
 21
5.1462583788
 31
0.0
  0
LINE
  5
417
330
1F
100
AcDbEntity
  8
0
  6
SLD-SOLID
 62
     7
100
AcDbLine
 10
5.9515546829
 20
5.2018139383
 30
0.0
 11
6.060614463
 21
5.2018139383
 31
0.0
  0
LINE
  5
418
330
1F
100
AcDbEntity
  8
0
  6
SLD-SOLID
 62
     7
100
AcDbLine
 10
5.9196142785
 20
5.2018139383
 30
0.0
 11
5.9515546829
 21
5.2018139383
 31
0.0
  0
LINE
  5
419
330
1F
100
AcDbEntity
  8
0
  6
SLD-SOLID
 62
     7
100
AcDbLine
 10
6.060614463
 20
5.9523263537
 30
0.0
 11
5.9196142785
 21
5.9523263537
 31
0.0
  0
LINE
  5
41A
330
1F
100
AcDbEntity
  8
0
  6
SLD-SOLID
 62
     7
100
AcDbLine
 10
6.08511426
 20
5.9381812504
 30
0.0
 11
5.8951141882
 21
5.9381812504
 31
0.0
  0
LINE
  5
41B
330
1F
100
AcDbEntity
  8
0
  6
SLD-SOLID
 62
     7
100
AcDbLine
 10
5.9515546829
 20
5.9240361472
 30
0.0
 11
6.060614463
 21
5.9240361472
 31
0.0
  0
LINE
  5
41C
330
1F
100
AcDbEntity
  8
0
  6
SLD-SOLID
 62
     7
100
AcDbLine
 10
5.9196142785
 20
5.9240361472
 30
0.0
 11
5.9515546829
 21
5.9240361472
 31
0.0
  0
LINE
  5
41D
330
1F
100
AcDbEntity
  8
0
  6
SLD-SOLID
 62
     7
100
AcDbLine
 10
5.9515546829
 20
5.5907028179
 30
0.0
 11
6.060614463
 21
5.5907028179
 31
0.0
  0
LINE
  5
41E
330
1F
100
AcDbEntity
  8
0
  6
SLD-SOLID
 62
     7
100
AcDbLine
 10
5.9196142785
 20
5.5907028179
 30
0.0
 11
5.9515546829
 21
5.5907028179
 31
0.0
  0
LINE
  5
41F
330
1F
100
AcDbEntity
  8
0
  6
SLD-SOLID
 62
     7
100
AcDbLine
 10
5.9515546829
 20
5.535147263
 30
0.0
 11
6.060614463
 21
5.535147263
 31
0.0
  0
LINE
  5
420
330
1F
100
AcDbEntity
  8
0
  6
SLD-SOLID
 62
     7
100
AcDbLine
 10
5.9196142785
 20
5.535147263
 30
0.0
 11
5.9515546829
 21
5.535147263
 31
0.0
  0
LINE
  5
421
330
1F
100
AcDbEntity
  8
0
  6
SLD-SOLID
 62
     7
100
AcDbLine
 10
6.08511426
 20
4.7159590063
 30
0.0
 11
5.8951141882
 21
4.7159590063
 31
0.0
  0
LINE
  5
422
330
1F
100
AcDbEntity
  8
0
  6
SLD-SOLID
 62
     7
100
AcDbLine
 10
5.9515546829
 20
4.7018139397
 30
0.0
 11
6.060614463
 21
4.7018139397
 31
0.0
  0
LINE
  5
423
330
1F
100
AcDbEntity
  8
0
  6
SLD-SOLID
 62
     7
100
AcDbLine
 10
5.9196142785
 20
4.7018139397
 30
0.0
 11
5.9515546829
 21
4.7018139397
 31
0.0
  0
LINE
  5
424
330
1F
100
AcDbEntity
  8
0
  6
SLD-SOLID
 62
     7
100
AcDbLine
 10
6.08511426
 20
4.6604034514
 30
0.0
 11
5.8951141882
 21
4.6604034514
 31
0.0
  0
LINE
  5
425
330
1F
100
AcDbEntity
  8
0
  6
SLD-SOLID
 62
     7
100
AcDbLine
 10
5.9515546829
 20
4.6462583482
 30
0.0
 11
6.060614463
 21
4.6462583482
 31
0.0
  0
LINE
  5
426
330
1F
100
AcDbEntity
  8
0
  6
SLD-SOLID
 62
     7
100
AcDbLine
 10
5.9196142785
 20
4.6462583482
 30
0.0
 11
5.9515546829
 21
4.6462583482
 31
0.0
  0
LINE
  5
427
330
1F
100
AcDbEntity
  8
0
  6
SLD-SOLID
 62
     7
100
AcDbLine
 10
6.060614463
 20
4.6189929631
 30
0.0
 11
5.9196142785
 21
4.6189929631
 31
0.0
  0
LINE
  5
428
330
1F
100
AcDbEntity
  8
0
  6
SLD-SOLID
 62
     7
100
AcDbLine
 10
6.08511426
 20
4.6048479332
 30
0.0
 11
5.8951141882
 21
4.6048479332
 31
0.0
  0
LINE
  5
429
330
1F
100
AcDbEntity
  8
0
  6
SLD-SOLID
 62
     7
100
AcDbLine
 10
5.9515546829
 20
4.59070283
 30
0.0
 11
6.060614463
 21
4.59070283
 31
0.0
  0
LINE
  5
42A
330
1F
100
AcDbEntity
  8
0
  6
SLD-SOLID
 62
     7
100
AcDbLine
 10
5.9196142785
 20
4.59070283
 30
0.0
 11
5.9515546829
 21
4.59070283
 31
0.0
  0
LINE
  5
42B
330
1F
100
AcDbEntity
  8
0
  6
SLD-SOLID
 62
     7
100
AcDbLine
 10
6.060614463
 20
4.7301041096
 30
0.0
 11
5.9196142785
 21
4.7301041096
 31
0.0
  0
LINE
  5
42C
330
1F
100
AcDbEntity
  8
0
  6
SLD-SOLID
 62
     7
100
AcDbLine
 10
6.060614463
 20
4.5634374449
 30
0.0
 11
5.9196142785
 21
4.5634374449
 31
0.0
  0
LINE
  5
42D
330
1F
100
AcDbEntity
  8
0
  6
SLD-SOLID
 62
     7
100
AcDbLine
 10
6.060614463
 20
4.6745485547
 30
0.0
 11
5.9196142785
 21
4.6745485547
 31
0.0
  0
LINE
  5
42E
330
1F
100
AcDbEntity
  8
0
  6
SLD-SOLID
 62
     7
100
AcDbLine
 10
6.060614463
 20
6.7679792512
 30
0.0
 11
5.9196142785
 21
6.7679792512
 31
0.0
  0
LINE
  5
42F
330
1F
100
AcDbEntity
  8
0
  6
SLD-SOLID
 62
     7
100
AcDbLine
 10
5.9503763765
 20
4.3404865938
 30
0.0
 11
5.9489654594
 21
4.3305583285
 31
0.0
  0
LINE
  5
430
330
1F
100
AcDbEntity
  8
0
  6
SLD-SOLID
 62
     7
100
AcDbLine
 10
6.030752888
 20
4.3341498603
 30
0.0
 11
6.0312632821
 21
4.3305583285
 31
0.0
  0
LINE
  5
431
330
1F
100
AcDbEntity
  8
0
  6
SLD-SOLID
 62
     7
100
AcDbLine
 10
5.9815508963
 20
4.3327289701
 30
0.0
 11
5.9814860704
 21
4.3305583285
 31
0.0
  0
LINE
  5
432
330
1F
100
AcDbEntity
  8
0
  6
SLD-SOLID
 62
     7
100
AcDbLine
 10
9.1686143279
 20
4.8104312316
 30
0.0
 11
9.1686143279
 21
5.1834312394
 31
0.0
  0
ARC
  5
433
330
1F
100
AcDbEntity
  8
0
  6
SLD-SOLID
 62
     7
100
AcDbCircle
 10
9.1376143277
 20
4.8104312417
 30
0.0
 40
0.0309999999999997
100
AcDbArc
 50
270.0
 51
0.0
  0
LINE
  5
434
330
1F
100
AcDbEntity
  8
0
  6
SLD-SOLID
 62
     7
100
AcDbLine
 10
9.1376143256
 20
4.7794312431
 30
0.0
 11
7.7202940636
 21
4.7794312431
 31
0.0
  0
LINE
  5
435
330
1F
100
AcDbEntity
  8
0
  6
SLD-SOLID
 62
     7
100
AcDbLine
 10
7.5549345871
 20
4.7794312431
 30
0.0
 11
4.4252941544
 21
4.7794312431
 31
0.0
  0
LINE
  5
436
330
1F
100
AcDbEntity
  8
0
  6
SLD-SOLID
 62
     7
100
AcDbLine
 10
4.2599346779
 20
4.7794312431
 30
0.0
 11
2.8426142509
 21
4.7794312431
 31
0.0
  0
ARC
  5
437
330
1F
100
AcDbEntity
  8
0
  6
SLD-SOLID
 62
     7
100
AcDbCircle
 10
2.8426143277
 20
4.8104312417
 30
0.0
 40
0.0310000000000019
100
AcDbArc
 50
180.0
 51
270.0
  0
LINE
  5
438
330
1F
100
AcDbEntity
  8
0
  6
SLD-SOLID
 62
     7
100
AcDbLine
 10
2.8116145557
 20
4.8104312316
 30
0.0
 11
2.8116145557
 21
5.1834312394
 31
0.0
  0
ARC
  5
439
330
1F
100
AcDbEntity
  8
0
  6
SLD-SOLID
 62
     7
100
AcDbCircle
 10
2.8426143277
 20
5.1834312417
 30
0.0
 40
0.0310000000000019
100
AcDbArc
 50
90.0
 51
180.0
  0
ARC
  5
43A
330
1F
100
AcDbEntity
  8
0
  6
SLD-SOLID
 62
     7
100
AcDbCircle
 10
2.8906143277
 20
5.1834312417
 30
0.0
 40
0.0309999999999997
100
AcDbArc
 50
0.0
 51
90.0
  0
LINE
  5
43B
330
1F
100
AcDbEntity
  8
0
  6
SLD-SOLID
 62
     7
100
AcDbLine
 10
2.9216144583
 20
5.1834312394
 30
0.0
 11
2.9216144583
 21
4.9664312462
 31
0.0
  0
ARC
  5
43C
330
1F
100
AcDbEntity
  8
0
  6
SLD-SOLID
 62
     7
100
AcDbCircle
 10
2.9836143277
 20
4.9664312417
 30
0.0
 40
0.0620000000000016
100
AcDbArc
 50
180.0
 51
270.0
  0
LINE
  5
43D
330
1F
100
AcDbEntity
  8
0
  6
SLD-SOLID
 62
     7
100
AcDbLine
 10
2.9836144354
 20
4.9044312324
 30
0.0
 11
8.9966143244
 21
4.9044312324
 31
0.0
  0
ARC
  5
43E
330
1F
100
AcDbEntity
  8
0
  6
SLD-SOLID
 62
     7
100
AcDbCircle
 10
8.9966143277
 20
4.9664312417
 30
0.0
 40
0.0620000000000003
100
AcDbArc
 50
270.0
 51
0.0
  0
ARC
  5
43F
330
1F
100
AcDbEntity
  8
0
  6
SLD-SOLID
 62
     7
100
AcDbCircle
 10
9.0896143277
 20
5.1834312417
 30
0.0
 40
0.0310000000000006
100
AcDbArc
 50
100.3045077077
 51
180.0
  0
ARC
  5
440
330
1F
100
AcDbEntity
  8
0
  6
SLD-SOLID
 62
     7
100
AcDbCircle
 10
9.1376143277
 20
5.1834312417
 30
0.0
 40
0.0309999999999989
100
AcDbArc
 50
0.0
 51
79.6954922923
  0
LINE
  5
441
330
1F
100
AcDbEntity
  8
0
  6
SLD-SOLID
 62
     7
100
AcDbLine
 10
9.058614329
 20
4.9664312462
 30
0.0
 11
9.058614329
 21
5.1834312394
 31
0.0
  0
ARC
  5
442
330
1F
100
AcDbEntity
  8
0
  6
SLD-SOLID
 62
     7
100
AcDbCircle
 10
2.9836143277
 20
4.3761812417
 30
0.0
 40
0.0620000000000016
100
AcDbArc
 50
90.0
 51
180.0
  0
ARC
  5
443
330
1F
100
AcDbEntity
  8
0
  6
SLD-SOLID
 62
     7
100
AcDbCircle
 10
2.8426143277
 20
4.5321812417
 30
0.0
 40
0.0310000000000015
100
AcDbArc
 50
90.0
 51
180.0
  0
LINE
  5
444
330
1F
100
AcDbEntity
  8
0
  6
SLD-SOLID
 62
     7
100
AcDbLine
 10
2.8426142509
 20
4.5631812212
 30
0.0
 11
4.3353715131
 21
4.5631812212
 31
0.0
  0
LINE
  5
445
330
1F
100
AcDbEntity
  8
0
  6
SLD-SOLID
 62
     7
100
AcDbLine
 10
4.3674890888
 20
4.5631812212
 30
0.0
 11
4.3997738625
 21
4.5631812212
 31
0.0
  0
LINE
  5
446
330
1F
100
AcDbEntity
  8
0
  6
SLD-SOLID
 62
     7
100
AcDbLine
 10
4.4676143321
 20
4.5631812212
 30
0.0
 11
7.5126142627
 21
4.5631812212
 31
0.0
  0
LINE
  5
447
330
1F
100
AcDbEntity
  8
0
  6
SLD-SOLID
 62
     7
100
AcDbLine
 10
7.5804547323
 20
4.5631812212
 30
0.0
 11
7.6127396527
 21
4.5631812212
 31
0.0
  0
LINE
  5
448
330
1F
100
AcDbEntity
  8
0
  6
SLD-SOLID
 62
     7
100
AcDbLine
 10
7.6448570817
 20
4.5631812212
 30
0.0
 11
9.1376143256
 21
4.5631812212
 31
0.0
  0
LINE
  5
449
330
1F
100
AcDbEntity
  8
0
  6
SLD-SOLID
 62
     7
100
AcDbLine
 10
9.1686143279
 20
4.5321812327
 30
0.0
 11
9.1686143279
 21
4.4411812639
 31
0.0
  0
LINE
  5
44A
330
1F
100
AcDbEntity
  8
0
  6
SLD-SOLID
 62
     7
100
AcDbLine
 10
8.9966143244
 20
4.4381812319
 30
0.0
 11
7.5761143291
 21
4.4381812319
 31
0.0
  0
LINE
  5
44B
330
1F
100
AcDbEntity
  8
0
  6
SLD-SOLID
 62
     7
100
AcDbLine
 10
7.5126142627
 20
4.4381812319
 30
0.0
 11
4.4676143321
 21
4.4381812319
 31
0.0
  0
LINE
  5
44C
330
1F
100
AcDbEntity
  8
0
  6
SLD-SOLID
 62
     7
100
AcDbLine
 10
4.4041142657
 20
4.4381812319
 30
0.0
 11
2.9836144354
 21
4.4381812319
 31
0.0
  0
ARC
  5
44D
330
1F
100
AcDbEntity
  8
0
  6
SLD-SOLID
 62
     7
100
AcDbCircle
 10
9.1376143277
 20
4.5321812417
 30
0.0
 40
0.0310000000000006
100
AcDbArc
 50
0.0
 51
90.0
  0
ARC
  5
44E
330
1F
100
AcDbEntity
  8
0
  6
SLD-SOLID
 62
     7
100
AcDbCircle
 10
8.9966143277
 20
4.3761812417
 30
0.0
 40
0.0620000000000003
100
AcDbArc
 50
0.0
 51
90.0
  0
LINE
  5
44F
330
1F
100
AcDbEntity
  8
0
  6
SLD-SOLID
 62
     7
100
AcDbLine
 10
2.8116145557
 20
4.5321812327
 30
0.0
 11
2.8116145557
 21
4.4411812639
 31
0.0
  0
ARC
  5
450
330
1F
100
AcDbEntity
  8
0
  6
SLD-SOLID
 62
     7
100
AcDbCircle
 10
15.4306143277
 20
4.3761812417
 30
0.0
 40
0.0620000000000003
100
AcDbArc
 50
0.0
 51
90.0
  0
ARC
  5
451
330
1F
100
AcDbEntity
  8
0
  6
SLD-SOLID
 62
     7
100
AcDbCircle
 10
9.2766143277
 20
4.5321812417
 30
0.0
 40
0.0310000000000015
100
AcDbArc
 50
90.0
 51
180.0
  0
ARC
  5
452
330
1F
100
AcDbEntity
  8
0
  6
SLD-SOLID
 62
     7
100
AcDbCircle
 10
9.4176143277
 20
4.3761812417
 30
0.0
 40
0.0620000000000029
100
AcDbArc
 50
90.0
 51
180.0
  0
LINE
  5
453
330
1F
100
AcDbEntity
  8
0
  6
SLD-SOLID
 62
     7
100
AcDbLine
 10
15.6026140997
 20
4.5321812327
 30
0.0
 11
15.6026140997
 21
4.4411812639
 31
0.0
  0
ARC
  5
454
330
1F
100
AcDbEntity
  8
0
  6
SLD-SOLID
 62
     7
100
AcDbCircle
 10
15.5716143277
 20
4.5321812417
 30
0.0
 40
0.0310000000000006
100
AcDbArc
 50
0.0
 51
90.0
  0
LINE
  5
455
330
1F
100
AcDbEntity
  8
0
  6
SLD-SOLID
 62
     7
100
AcDbLine
 10
9.2766143298
 20
4.5631812212
 30
0.0
 11
10.7693715737
 21
4.5631812212
 31
0.0
  0
LINE
  5
456
330
1F
100
AcDbEntity
  8
0
  6
SLD-SOLID
 62
     7
100
AcDbLine
 10
10.8014890027
 20
4.5631812212
 30
0.0
 11
10.833773923
 21
4.5631812212
 31
0.0
  0
LINE
  5
457
330
1F
100
AcDbEntity
  8
0
  6
SLD-SOLID
 62
     7
100
AcDbLine
 10
10.9016143927
 20
4.5631812212
 30
0.0
 11
13.9466143233
 21
4.5631812212
 31
0.0
  0
LINE
  5
458
330
1F
100
AcDbEntity
  8
0
  6
SLD-SOLID
 62
     7
100
AcDbLine
 10
14.0144547929
 20
4.5631812212
 30
0.0
 11
14.0467395666
 21
4.5631812212
 31
0.0
  0
LINE
  5
459
330
1F
100
AcDbEntity
  8
0
  6
SLD-SOLID
 62
     7
100
AcDbLine
 10
14.0788571422
 20
4.5631812212
 30
0.0
 11
15.5716144044
 21
4.5631812212
 31
0.0
  0
LINE
  5
45A
330
1F
100
AcDbEntity
  8
0
  6
SLD-SOLID
 62
     7
100
AcDbLine
 10
15.43061422
 20
4.4381812319
 30
0.0
 11
14.0101143897
 21
4.4381812319
 31
0.0
  0
LINE
  5
45B
330
1F
100
AcDbEntity
  8
0
  6
SLD-SOLID
 62
     7
100
AcDbLine
 10
13.9466143233
 20
4.4381812319
 30
0.0
 11
10.9016143927
 21
4.4381812319
 31
0.0
  0
LINE
  5
45C
330
1F
100
AcDbEntity
  8
0
  6
SLD-SOLID
 62
     7
100
AcDbLine
 10
10.8381143262
 20
4.4381812319
 30
0.0
 11
9.417614331
 21
4.4381812319
 31
0.0
  0
LINE
  5
45D
330
1F
100
AcDbEntity
  8
0
  6
SLD-SOLID
 62
     7
100
AcDbLine
 10
9.2456143275
 20
4.5321812327
 30
0.0
 11
9.2456143275
 21
4.4411812639
 31
0.0
  0
LINE
  5
45E
330
1F
100
AcDbEntity
  8
0
  6
SLD-SOLID
 62
     7
100
AcDbLine
 10
15.6026140997
 20
4.8104312316
 30
0.0
 11
15.6026140997
 21
5.1834312394
 31
0.0
  0
LINE
  5
45F
330
1F
100
AcDbEntity
  8
0
  6
SLD-SOLID
 62
     7
100
AcDbLine
 10
15.5716144044
 20
4.7794312431
 30
0.0
 11
14.1542939775
 21
4.7794312431
 31
0.0
  0
LINE
  5
460
330
1F
100
AcDbEntity
  8
0
  6
SLD-SOLID
 62
     7
100
AcDbLine
 10
13.988934501
 20
4.7794312431
 30
0.0
 11
10.8592940682
 21
4.7794312431
 31
0.0
  0
LINE
  5
461
330
1F
100
AcDbEntity
  8
0
  6
SLD-SOLID
 62
     7
100
AcDbLine
 10
10.6939345918
 20
4.7794312431
 30
0.0
 11
9.2766143298
 21
4.7794312431
 31
0.0
  0
LINE
  5
462
330
1F
100
AcDbEntity
  8
0
  6
SLD-SOLID
 62
     7
100
AcDbLine
 10
9.2456143275
 20
4.8104312316
 30
0.0
 11
9.2456143275
 21
5.1834312394
 31
0.0
  0
LINE
  5
463
330
1F
100
AcDbEntity
  8
0
  6
SLD-SOLID
 62
     7
100
AcDbLine
 10
9.3556143264
 20
5.1834312394
 30
0.0
 11
9.3556143264
 21
4.9664312462
 31
0.0
  0
LINE
  5
464
330
1F
100
AcDbEntity
  8
0
  6
SLD-SOLID
 62
     7
100
AcDbLine
 10
9.417614331
 20
4.9044312324
 30
0.0
 11
15.43061422
 21
4.9044312324
 31
0.0
  0
ARC
  5
465
330
1F
100
AcDbEntity
  8
0
  6
SLD-SOLID
 62
     7
100
AcDbCircle
 10
9.2766143277
 20
5.1834312417
 30
0.0
 40
0.0310000000000006
100
AcDbArc
 50
100.3045077077
 51
180.0
  0
LINE
  5
466
330
1F
100
AcDbEntity
  8
0
  6
SLD-SOLID
 62
     7
100
AcDbLine
 10
15.4926141971
 20
4.9664312462
 30
0.0
 11
15.4926141971
 21
5.1834312394
 31
0.0
  0
ARC
  5
467
330
1F
100
AcDbEntity
  8
0
  6
SLD-SOLID
 62
     7
100
AcDbCircle
 10
15.4306143277
 20
4.9664312417
 30
0.0
 40
0.0620000000000003
100
AcDbArc
 50
270.0
 51
0.0
  0
ARC
  5
468
330
1F
100
AcDbEntity
  8
0
  6
SLD-SOLID
 62
     7
100
AcDbCircle
 10
15.5716143277
 20
4.8104312417
 30
0.0
 40
0.0309999999999997
100
AcDbArc
 50
270.0
 51
0.0
  0
ARC
  5
469
330
1F
100
AcDbEntity
  8
0
  6
SLD-SOLID
 62
     7
100
AcDbCircle
 10
9.2766143277
 20
4.8104312417
 30
0.0
 40
0.0310000000000006
100
AcDbArc
 50
180.0
 51
270.0
  0
ARC
  5
46A
330
1F
100
AcDbEntity
  8
0
  6
SLD-SOLID
 62
     7
100
AcDbCircle
 10
9.4176143277
 20
4.9664312417
 30
0.0
 40
0.0620000000000029
100
AcDbArc
 50
180.0
 51
270.0
  0
ARC
  5
46B
330
1F
100
AcDbEntity
  8
0
  6
SLD-SOLID
 62
     7
100
AcDbCircle
 10
15.5716143277
 20
5.1834312417
 30
0.0
 40
0.0309999999999988
100
AcDbArc
 50
0.0
 51
90.0
  0
ARC
  5
46C
330
1F
100
AcDbEntity
  8
0
  6
SLD-SOLID
 62
     7
100
AcDbCircle
 10
9.3246143277
 20
5.1834312417
 30
0.0
 40
0.0310000000000006
100
AcDbArc
 50
0.0
 51
79.6954922923
  0
ARC
  5
46D
330
1F
100
AcDbEntity
  8
0
  6
SLD-SOLID
 62
     7
100
AcDbCircle
 10
15.5236143277
 20
5.1834312417
 30
0.0
 40
0.0310000000000006
100
AcDbArc
 50
90.0
 51
180.0
  0
CIRCLE
  5
46E
330
1F
100
AcDbEntity
  8
0
  6
SLD-SOLID
 62
     7
100
AcDbCircle
 10
4.3426143277
 20
4.6856812417
 30
0.0
 40
0.0175
  0
ARC
  5
46F
330
1F
100
AcDbEntity
  8
0
  6
SLD-SOLID
 62
     7
100
AcDbCircle
 10
4.3426143277
 20
4.6856812417
 30
0.0
 40
0.0615000000000001
100
AcDbArc
 50
177.044291323
 51
272.955708677
  0
CIRCLE
  5
470
330
1F
100
AcDbEntity
  8
0
  6
SLD-SOLID
 62
     7
100
AcDbCircle
 10
10.7766143277
 20
4.6856812417
 30
0.0
 40
0.0175
  0
ARC
  5
471
330
1F
100
AcDbEntity
  8
0
  6
SLD-SOLID
 62
     7
100
AcDbCircle
 10
10.7766143277
 20
4.6856812417
 30
0.0
 40
0.0614999999999991
100
AcDbArc
 50
177.044291323
 51
272.955708677
  0
CIRCLE
  5
472
330
1F
100
AcDbEntity
  8
0
  6
SLD-SOLID
 62
     7
100
AcDbCircle
 10
14.0716143277
 20
4.6856812417
 30
0.0
 40
0.0175000000000012
  0
ARC
  5
473
330
1F
100
AcDbEntity
  8
0
  6
SLD-SOLID
 62
     7
100
AcDbCircle
 10
14.0716143277
 20
4.6856812417
 30
0.0
 40
0.0615000000000003
100
AcDbArc
 50
267.044291323
 51
2.9557086768
  0
CIRCLE
  5
474
330
1F
100
AcDbEntity
  8
0
  6
SLD-SOLID
 62
     7
100
AcDbCircle
 10
7.6376143277
 20
4.6856812417
 30
0.0
 40
0.0174999999999995
  0
ARC
  5
475
330
1F
100
AcDbEntity
  8
0
  6
SLD-SOLID
 62
     7
100
AcDbCircle
 10
7.6376143277
 20
4.6856812417
 30
0.0
 40
0.0614999999999995
100
AcDbArc
 50
267.044291323
 51
2.955708677
  0
LINE
  5
476
330
1F
100
AcDbEntity
  8
0
  6
SLD-SOLID
 62
     7
100
AcDbLine
 10
15.6066145335
 20
4.4305696865
 30
0.0
 11
15.4926141971
 21
4.4305696865
 31
0.0
  0
LINE
  5
477
330
1F
100
AcDbEntity
  8
0
  6
SLD-SOLID
 62
     7
100
AcDbLine
 10
15.6066145335
 20
4.4305696865
 30
0.0
 11
15.6066145335
 21
4.0679231625
 31
0.0
  0
LINE
  5
478
330
1F
100
AcDbEntity
  8
0
  6
SLD-SOLID
 62
     7
100
AcDbLine
 10
15.4926141971
 20
4.4305696865
 30
0.0
 11
15.4926141971
 21
4.0679231625
 31
0.0
  0
LINE
  5
479
330
1F
100
AcDbEntity
  8
0
  6
SLD-SOLID
 62
     7
100
AcDbLine
 10
15.6066145335
 20
4.4411812639
 30
0.0
 11
15.4926141971
 21
4.4411812639
 31
0.0
  0
LINE
  5
47A
330
1F
100
AcDbEntity
  8
0
  6
SLD-SOLID
 62
     7
100
AcDbLine
 10
15.6066145335
 20
4.4411812639
 30
0.0
 11
15.6066145335
 21
4.4305696865
 31
0.0
  0
LINE
  5
47B
330
1F
100
AcDbEntity
  8
0
  6
SLD-SOLID
 62
     7
100
AcDbLine
 10
15.4926141971
 20
4.4411812639
 30
0.0
 11
15.4926141971
 21
4.4305696865
 31
0.0
  0
LINE
  5
47C
330
1F
100
AcDbEntity
  8
0
  6
SLD-SOLID
 62
     7
100
AcDbLine
 10
15.6066145335
 20
4.0679231625
 30
0.0
 11
15.6066145335
 21
3.9411813066
 31
0.0
  0
LINE
  5
47D
330
1F
100
AcDbEntity
  8
0
  6
SLD-SOLID
 62
     7
100
AcDbLine
 10
15.4926141971
 20
4.0679231625
 30
0.0
 11
15.4926141971
 21
3.9411813066
 31
0.0
  0
LINE
  5
47E
330
1F
100
AcDbEntity
  8
0
  6
SLD-SOLID
 62
     7
100
AcDbLine
 10
2.9216144583
 20
4.4411812639
 30
0.0
 11
2.8076141219
 21
4.4411812639
 31
0.0
  0
LINE
  5
47F
330
1F
100
AcDbEntity
  8
0
  6
SLD-SOLID
 62
     7
100
AcDbLine
 10
2.9216144583
 20
4.4305696865
 30
0.0
 11
2.8076141219
 21
4.4305696865
 31
0.0
  0
LINE
  5
480
330
1F
100
AcDbEntity
  8
0
  6
SLD-SOLID
 62
     7
100
AcDbLine
 10
2.8076141219
 20
4.4411812639
 30
0.0
 11
2.8076141219
 21
4.4305696865
 31
0.0
  0
LINE
  5
481
330
1F
100
AcDbEntity
  8
0
  6
SLD-SOLID
 62
     7
100
AcDbLine
 10
2.9216144583
 20
4.4411812639
 30
0.0
 11
2.9216144583
 21
4.4305696865
 31
0.0
  0
LINE
  5
482
330
1F
100
AcDbEntity
  8
0
  6
SLD-SOLID
 62
     7
100
AcDbLine
 10
2.8076141219
 20
4.4305696865
 30
0.0
 11
2.8076141219
 21
4.0679231625
 31
0.0
  0
LINE
  5
483
330
1F
100
AcDbEntity
  8
0
  6
SLD-SOLID
 62
     7
100
AcDbLine
 10
2.9216144583
 20
4.4305696865
 30
0.0
 11
2.9216144583
 21
4.0679231625
 31
0.0
  0
LINE
  5
484
330
1F
100
AcDbEntity
  8
0
  6
SLD-SOLID
 62
     7
100
AcDbLine
 10
2.8076141219
 20
4.0679231625
 30
0.0
 11
2.8076141219
 21
3.9411813066
 31
0.0
  0
LINE
  5
485
330
1F
100
AcDbEntity
  8
0
  6
SLD-SOLID
 62
     7
100
AcDbLine
 10
2.9216144583
 20
4.0679231625
 30
0.0
 11
2.9216144583
 21
3.9411813066
 31
0.0
  0
LINE
  5
486
330
1F
100
AcDbEntity
  8
0
  6
SLD-SOLID
 62
     7
100
AcDbLine
 10
9.1726143285
 20
4.4305696865
 30
0.0
 11
9.058614329
 21
4.4305696865
 31
0.0
  0
LINE
  5
487
330
1F
100
AcDbEntity
  8
0
  6
SLD-SOLID
 62
     7
100
AcDbLine
 10
9.1726143285
 20
4.4305696865
 30
0.0
 11
9.1726143285
 21
4.0679231625
 31
0.0
  0
LINE
  5
488
330
1F
100
AcDbEntity
  8
0
  6
SLD-SOLID
 62
     7
100
AcDbLine
 10
9.058614329
 20
4.4305696865
 30
0.0
 11
9.058614329
 21
4.0679231625
 31
0.0
  0
LINE
  5
489
330
1F
100
AcDbEntity
  8
0
  6
SLD-SOLID
 62
     7
100
AcDbLine
 10
9.1726143285
 20
4.4411812639
 30
0.0
 11
9.058614329
 21
4.4411812639
 31
0.0
  0
LINE
  5
48A
330
1F
100
AcDbEntity
  8
0
  6
SLD-SOLID
 62
     7
100
AcDbLine
 10
9.1726143285
 20
4.4411812639
 30
0.0
 11
9.1726143285
 21
4.4305696865
 31
0.0
  0
LINE
  5
48B
330
1F
100
AcDbEntity
  8
0
  6
SLD-SOLID
 62
     7
100
AcDbLine
 10
9.058614329
 20
4.4411812639
 30
0.0
 11
9.058614329
 21
4.4305696865
 31
0.0
  0
LINE
  5
48C
330
1F
100
AcDbEntity
  8
0
  6
SLD-SOLID
 62
     7
100
AcDbLine
 10
9.1726143285
 20
4.0679231625
 30
0.0
 11
9.1726143285
 21
3.9411813066
 31
0.0
  0
LINE
  5
48D
330
1F
100
AcDbEntity
  8
0
  6
SLD-SOLID
 62
     7
100
AcDbLine
 10
9.058614329
 20
4.0679231625
 30
0.0
 11
9.058614329
 21
3.9411813066
 31
0.0
  0
LINE
  5
48E
330
1F
100
AcDbEntity
  8
0
  6
SLD-SOLID
 62
     7
100
AcDbLine
 10
9.3556143264
 20
4.4305696865
 30
0.0
 11
9.2416143269
 21
4.4305696865
 31
0.0
  0
LINE
  5
48F
330
1F
100
AcDbEntity
  8
0
  6
SLD-SOLID
 62
     7
100
AcDbLine
 10
9.2416143269
 20
4.4305696865
 30
0.0
 11
9.2416143269
 21
4.0679231625
 31
0.0
  0
LINE
  5
490
330
1F
100
AcDbEntity
  8
0
  6
SLD-SOLID
 62
     7
100
AcDbLine
 10
9.3556143264
 20
4.4305696865
 30
0.0
 11
9.3556143264
 21
4.0679231625
 31
0.0
  0
LINE
  5
491
330
1F
100
AcDbEntity
  8
0
  6
SLD-SOLID
 62
     7
100
AcDbLine
 10
9.3556143264
 20
4.4411812639
 30
0.0
 11
9.2416143269
 21
4.4411812639
 31
0.0
  0
LINE
  5
492
330
1F
100
AcDbEntity
  8
0
  6
SLD-SOLID
 62
     7
100
AcDbLine
 10
9.2416143269
 20
4.4411812639
 30
0.0
 11
9.2416143269
 21
4.4305696865
 31
0.0
  0
LINE
  5
493
330
1F
100
AcDbEntity
  8
0
  6
SLD-SOLID
 62
     7
100
AcDbLine
 10
9.3556143264
 20
4.4411812639
 30
0.0
 11
9.3556143264
 21
4.4305696865
 31
0.0
  0
LINE
  5
494
330
1F
100
AcDbEntity
  8
0
  6
SLD-SOLID
 62
     7
100
AcDbLine
 10
9.2416143269
 20
4.0679231625
 30
0.0
 11
9.2416143269
 21
3.9411813066
 31
0.0
  0
LINE
  5
495
330
1F
100
AcDbEntity
  8
0
  6
SLD-SOLID
 62
     7
100
AcDbLine
 10
9.3556143264
 20
4.0679231625
 30
0.0
 11
9.3556143264
 21
3.9411813066
 31
0.0
  0
LINE
  5
496
330
1F
100
AcDbEntity
  8
0
  6
SLD-SOLID
 62
     7
100
AcDbLine
 10
11.1516143713
 20
4.5631812212
 30
0.0
 11
10.9016143927
 21
4.5631812212
 31
0.0
  0
LINE
  5
497
330
1F
100
AcDbEntity
  8
0
  6
SLD-SOLID
 62
     7
100
AcDbLine
 10
10.7693715737
 20
4.5631812212
 30
0.0
 11
10.4016143621
 21
4.5631812212
 31
0.0
  0
LINE
  5
498
330
1F
100
AcDbEntity
  8
0
  6
SLD-SOLID
 62
     7
100
AcDbLine
 10
10.4016143621
 20
4.5631812212
 30
0.0
 11
10.4016143621
 21
4.593181248
 31
0.0
  0
LINE
  5
499
330
1F
100
AcDbEntity
  8
0
  6
SLD-SOLID
 62
     7
100
AcDbLine
 10
10.4016143621
 20
4.593181248
 30
0.0
 11
10.7496788679
 21
4.593181248
 31
0.0
  0
LINE
  5
49A
330
1F
100
AcDbEntity
  8
0
  6
SLD-SOLID
 62
     7
100
AcDbLine
 10
10.9016143927
 20
4.593181248
 30
0.0
 11
11.1516143713
 21
4.593181248
 31
0.0
  0
LINE
  5
49B
330
1F
100
AcDbEntity
  8
0
  6
SLD-SOLID
 62
     7
100
AcDbLine
 10
11.1516143713
 20
4.593181248
 30
0.0
 11
11.1516143713
 21
4.5631812212
 31
0.0
  0
LINE
  5
49C
330
1F
100
AcDbEntity
  8
0
  6
SLD-SOLID
 62
     7
100
AcDbLine
 10
8.0126142933
 20
4.593181248
 30
0.0
 11
7.6645497875
 21
4.593181248
 31
0.0
  0
LINE
  5
49D
330
1F
100
AcDbEntity
  8
0
  6
SLD-SOLID
 62
     7
100
AcDbLine
 10
7.5126142627
 20
4.593181248
 30
0.0
 11
7.2626142841
 21
4.593181248
 31
0.0
  0
LINE
  5
49E
330
1F
100
AcDbEntity
  8
0
  6
SLD-SOLID
 62
     7
100
AcDbLine
 10
8.0126142933
 20
4.5631812212
 30
0.0
 11
8.0126142933
 21
4.593181248
 31
0.0
  0
LINE
  5
49F
330
1F
100
AcDbEntity
  8
0
  6
SLD-SOLID
 62
     7
100
AcDbLine
 10
7.2626142841
 20
4.593181248
 30
0.0
 11
7.2626142841
 21
4.5631812212
 31
0.0
  0
LINE
  5
4A0
330
1F
100
AcDbEntity
  8
0
  6
SLD-SOLID
 62
     7
100
AcDbLine
 10
7.2626142841
 20
4.5631812212
 30
0.0
 11
7.5126142627
 21
4.5631812212
 31
0.0
  0
LINE
  5
4A1
330
1F
100
AcDbEntity
  8
0
  6
SLD-SOLID
 62
     7
100
AcDbLine
 10
7.6448570817
 20
4.5631812212
 30
0.0
 11
8.0126142933
 21
4.5631812212
 31
0.0
  0
LINE
  5
4A2
330
1F
100
AcDbEntity
  8
0
  6
SLD-SOLID
 62
     7
100
AcDbLine
 10
14.4466142805
 20
4.593181248
 30
0.0
 11
14.0985498481
 21
4.593181248
 31
0.0
  0
LINE
  5
4A3
330
1F
100
AcDbEntity
  8
0
  6
SLD-SOLID
 62
     7
100
AcDbLine
 10
13.9466143233
 20
4.593181248
 30
0.0
 11
13.6966141979
 21
4.593181248
 31
0.0
  0
LINE
  5
4A4
330
1F
100
AcDbEntity
  8
0
  6
SLD-SOLID
 62
     7
100
AcDbLine
 10
14.4466142805
 20
4.5631812212
 30
0.0
 11
14.4466142805
 21
4.593181248
 31
0.0
  0
LINE
  5
4A5
330
1F
100
AcDbEntity
  8
0
  6
SLD-SOLID
 62
     7
100
AcDbLine
 10
13.6966141979
 20
4.5631812212
 30
0.0
 11
13.9466143233
 21
4.5631812212
 31
0.0
  0
LINE
  5
4A6
330
1F
100
AcDbEntity
  8
0
  6
SLD-SOLID
 62
     7
100
AcDbLine
 10
14.0788571422
 20
4.5631812212
 30
0.0
 11
14.4466142805
 21
4.5631812212
 31
0.0
  0
LINE
  5
4A7
330
1F
100
AcDbEntity
  8
0
  6
SLD-SOLID
 62
     7
100
AcDbLine
 10
13.6966141979
 20
4.593181248
 30
0.0
 11
13.6966141979
 21
4.5631812212
 31
0.0
  0
LINE
  5
4A8
330
1F
100
AcDbEntity
  8
0
  6
SLD-SOLID
 62
     7
100
AcDbLine
 10
4.7176144574
 20
4.5631812212
 30
0.0
 11
4.4676143321
 21
4.5631812212
 31
0.0
  0
LINE
  5
4A9
330
1F
100
AcDbEntity
  8
0
  6
SLD-SOLID
 62
     7
100
AcDbLine
 10
4.3353715131
 20
4.5631812212
 30
0.0
 11
3.9676143748
 21
4.5631812212
 31
0.0
  0
LINE
  5
4AA
330
1F
100
AcDbEntity
  8
0
  6
SLD-SOLID
 62
     7
100
AcDbLine
 10
3.9676143748
 20
4.5631812212
 30
0.0
 11
3.9676143748
 21
4.593181248
 31
0.0
  0
LINE
  5
4AB
330
1F
100
AcDbEntity
  8
0
  6
SLD-SOLID
 62
     7
100
AcDbLine
 10
3.9676143748
 20
4.593181248
 30
0.0
 11
4.3156788073
 21
4.593181248
 31
0.0
  0
LINE
  5
4AC
330
1F
100
AcDbEntity
  8
0
  6
SLD-SOLID
 62
     7
100
AcDbLine
 10
4.4676143321
 20
4.593181248
 30
0.0
 11
4.7176144574
 21
4.593181248
 31
0.0
  0
LINE
  5
4AD
330
1F
100
AcDbEntity
  8
0
  6
SLD-SOLID
 62
     7
100
AcDbLine
 10
4.7176144574
 20
4.593181248
 30
0.0
 11
4.7176144574
 21
4.5631812212
 31
0.0
  0
LINE
  5
4AE
330
1F
100
AcDbEntity
  8
0
  6
SLD-SOLID
 62
     7
100
AcDbLine
 10
7.5126142627
 20
4.6231812748
 30
0.0
 11
7.2626142841
 21
4.6231812748
 31
0.0
  0
LINE
  5
4AF
330
1F
100
AcDbEntity
  8
0
  6
SLD-SOLID
 62
     7
100
AcDbLine
 10
7.7492366359
 20
4.7419437128
 30
0.0
 11
7.7655108746
 21
4.7582180248
 31
0.0
  0
LINE
  5
4B0
330
1F
100
AcDbEntity
  8
0
  6
SLD-SOLID
 62
     7
100
AcDbLine
 10
7.7442976929
 20
4.7794312431
 30
0.0
 11
7.7322324457
 21
4.7673660325
 31
0.0
  0
LINE
  5
4B1
330
1F
100
AcDbEntity
  8
0
  6
SLD-SOLID
 62
     7
100
AcDbLine
 10
7.7655108746
 20
4.7582180248
 30
0.0
 11
7.7442976929
 21
4.7794312431
 31
0.0
  0
LINE
  5
4B2
330
1F
100
AcDbEntity
  8
0
  6
SLD-SOLID
 62
     7
100
AcDbLine
 10
7.2626142841
 20
4.6231812748
 30
0.0
 11
7.2626142841
 21
4.593181248
 31
0.0
  0
LINE
  5
4B3
330
1F
100
AcDbEntity
  8
0
  6
SLD-SOLID
 62
     7
100
AcDbLine
 10
8.0126142933
 20
4.6231812748
 30
0.0
 11
7.6411793108
 21
4.6231812748
 31
0.0
  0
LINE
  5
4B4
330
1F
100
AcDbEntity
  8
0
  6
SLD-SOLID
 62
     7
100
AcDbLine
 10
8.0126142933
 20
4.593181248
 30
0.0
 11
8.0126142933
 21
4.6231812748
 31
0.0
  0
LINE
  5
4B5
330
1F
100
AcDbEntity
  8
0
  6
SLD-SOLID
 62
     7
100
AcDbLine
 10
10.4016143621
 20
4.593181248
 30
0.0
 11
10.4016143621
 21
4.6231812748
 31
0.0
  0
LINE
  5
4B6
330
1F
100
AcDbEntity
  8
0
  6
SLD-SOLID
 62
     7
100
AcDbLine
 10
10.6649920195
 20
4.7419437128
 30
0.0
 11
10.6487177808
 21
4.7582180248
 31
0.0
  0
LINE
  5
4B7
330
1F
100
AcDbEntity
  8
0
  6
SLD-SOLID
 62
     7
100
AcDbLine
 10
10.6487177808
 20
4.7582180248
 30
0.0
 11
10.6699309624
 21
4.7794312431
 31
0.0
  0
LINE
  5
4B8
330
1F
100
AcDbEntity
  8
0
  6
SLD-SOLID
 62
     7
100
AcDbLine
 10
10.6699309624
 20
4.7794312431
 30
0.0
 11
10.6819962097
 21
4.7673660325
 31
0.0
  0
LINE
  5
4B9
330
1F
100
AcDbEntity
  8
0
  6
SLD-SOLID
 62
     7
100
AcDbLine
 10
10.9016143927
 20
4.6231812748
 30
0.0
 11
11.1516143713
 21
4.6231812748
 31
0.0
  0
LINE
  5
4BA
330
1F
100
AcDbEntity
  8
0
  6
SLD-SOLID
 62
     7
100
AcDbLine
 10
11.1516143713
 20
4.6231812748
 30
0.0
 11
11.1516143713
 21
4.593181248
 31
0.0
  0
LINE
  5
4BB
330
1F
100
AcDbEntity
  8
0
  6
SLD-SOLID
 62
     7
100
AcDbLine
 10
10.4016143621
 20
4.6231812748
 30
0.0
 11
10.7730493445
 21
4.6231812748
 31
0.0
  0
LINE
  5
4BC
330
1F
100
AcDbEntity
  8
0
  6
SLD-SOLID
 62
     7
100
AcDbLine
 10
3.9676143748
 20
4.6231812748
 30
0.0
 11
4.339049284
 21
4.6231812748
 31
0.0
  0
LINE
  5
4BD
330
1F
100
AcDbEntity
  8
0
  6
SLD-SOLID
 62
     7
100
AcDbLine
 10
4.2309918123
 20
4.7419437128
 30
0.0
 11
4.2147178669
 21
4.7582180248
 31
0.0
  0
LINE
  5
4BE
330
1F
100
AcDbEntity
  8
0
  6
SLD-SOLID
 62
     7
100
AcDbLine
 10
4.2147178669
 20
4.7582180248
 30
0.0
 11
4.2359309019
 21
4.7794312431
 31
0.0
  0
LINE
  5
4BF
330
1F
100
AcDbEntity
  8
0
  6
SLD-SOLID
 62
     7
100
AcDbLine
 10
4.2359309019
 20
4.7794312431
 30
0.0
 11
4.2479961492
 21
4.7673660325
 31
0.0
  0
LINE
  5
4C0
330
1F
100
AcDbEntity
  8
0
  6
SLD-SOLID
 62
     7
100
AcDbLine
 10
4.4676143321
 20
4.6231812748
 30
0.0
 11
4.7176144574
 21
4.6231812748
 31
0.0
  0
LINE
  5
4C1
330
1F
100
AcDbEntity
  8
0
  6
SLD-SOLID
 62
     7
100
AcDbLine
 10
4.7176144574
 20
4.6231812748
 30
0.0
 11
4.7176144574
 21
4.593181248
 31
0.0
  0
LINE
  5
4C2
330
1F
100
AcDbEntity
  8
0
  6
SLD-SOLID
 62
     7
100
AcDbLine
 10
3.9676143748
 20
4.593181248
 30
0.0
 11
3.9676143748
 21
4.6231812748
 31
0.0
  0
LINE
  5
4C3
330
1F
100
AcDbEntity
  8
0
  6
SLD-SOLID
 62
     7
100
AcDbLine
 10
14.1782977535
 20
4.7794312431
 30
0.0
 11
14.1662325062
 21
4.7673660325
 31
0.0
  0
LINE
  5
4C4
330
1F
100
AcDbEntity
  8
0
  6
SLD-SOLID
 62
     7
100
AcDbLine
 10
14.1995107884
 20
4.7582180248
 30
0.0
 11
14.1782977535
 21
4.7794312431
 31
0.0
  0
LINE
  5
4C5
330
1F
100
AcDbEntity
  8
0
  6
SLD-SOLID
 62
     7
100
AcDbLine
 10
14.1832368431
 20
4.7419437128
 30
0.0
 11
14.1995107884
 21
4.7582180248
 31
0.0
  0
LINE
  5
4C6
330
1F
100
AcDbEntity
  8
0
  6
SLD-SOLID
 62
     7
100
AcDbLine
 10
14.4466142805
 20
4.6231812748
 30
0.0
 11
14.0751793714
 21
4.6231812748
 31
0.0
  0
LINE
  5
4C7
330
1F
100
AcDbEntity
  8
0
  6
SLD-SOLID
 62
     7
100
AcDbLine
 10
14.4466142805
 20
4.593181248
 30
0.0
 11
14.4466142805
 21
4.6231812748
 31
0.0
  0
LINE
  5
4C8
330
1F
100
AcDbEntity
  8
0
  6
SLD-SOLID
 62
     7
100
AcDbLine
 10
13.6966141979
 20
4.6231812748
 30
0.0
 11
13.6966141979
 21
4.593181248
 31
0.0
  0
LINE
  5
4C9
330
1F
100
AcDbEntity
  8
0
  6
SLD-SOLID
 62
     7
100
AcDbLine
 10
13.9466143233
 20
4.6231812748
 30
0.0
 11
13.6966141979
 21
4.6231812748
 31
0.0
  0
LINE
  5
4CA
330
1F
100
AcDbEntity
  8
0
  6
SLD-SOLID
 62
     7
100
AcDbLine
 10
15.8288055134
 20
6.0314312065
 30
0.0
 11
2.585423142
 21
6.0314312065
 31
0.0
  0
LINE
  5
4CB
330
1F
100
AcDbEntity
  8
0
  6
SLD-SOLID
 62
     7
100
AcDbLine
 10
15.8684437754
 20
5.9707253278
 30
0.0
 11
15.9186718352
 21
5.9841838923
 31
0.0
  0
LINE
  5
4CC
330
1F
100
AcDbEntity
  8
0
  6
SLD-SOLID
 62
     7
100
AcDbLine
 10
2.5457848799
 20
5.9707253278
 30
0.0
 11
2.4955568202
 21
5.9841838923
 31
0.0
  0
LINE
  5
4CD
330
1F
100
AcDbEntity
  8
0
  6
SLD-SOLID
 62
     7
100
AcDbLine
 10
12.322109383
 20
4.3899148895
 30
0.0
 11
12.6106143435
 21
4.3899148895
 31
0.0
  0
LINE
  5
4CE
330
1F
100
AcDbEntity
  8
0
  6
SLD-SOLID
 62
     7
100
AcDbLine
 10
12.2376142258
 20
4.3899148895
 30
0.0
 11
12.322109383
 21
4.3899148895
 31
0.0
  0
LINE
  5
4CF
330
1F
100
AcDbEntity
  8
0
  6
SLD-SOLID
 62
     7
100
AcDbLine
 10
12.3278885696
 20
4.3722793799
 30
0.0
 11
12.6000477189
 21
4.3722793799
 31
0.0
  0
LINE
  5
4D0
330
1F
100
AcDbEntity
  8
0
  6
SLD-SOLID
 62
     7
100
AcDbLine
 10
12.2481808504
 20
4.3722793799
 30
0.0
 11
12.3278885696
 21
4.3722793799
 31
0.0
  0
LINE
  5
4D1
330
1F
100
AcDbEntity
  8
0
  6
SLD-SOLID
 62
     7
100
AcDbLine
 10
5.8881091758
 20
4.3899148895
 30
0.0
 11
6.1766144296
 21
4.3899148895
 31
0.0
  0
LINE
  5
4D2
330
1F
100
AcDbEntity
  8
0
  6
SLD-SOLID
 62
     7
100
AcDbLine
 10
5.8036143119
 20
4.3899148895
 30
0.0
 11
5.8881091758
 21
4.3899148895
 31
0.0
  0
LINE
  5
4D3
330
1F
100
AcDbEntity
  8
0
  6
SLD-SOLID
 62
     7
100
AcDbLine
 10
5.8938886557
 20
4.3722793799
 30
0.0
 11
6.166047805
 21
4.3722793799
 31
0.0
  0
LINE
  5
4D4
330
1F
100
AcDbEntity
  8
0
  6
SLD-SOLID
 62
     7
100
AcDbLine
 10
5.8141809365
 20
4.3722793799
 30
0.0
 11
5.8938886557
 21
4.3722793799
 31
0.0
  0
LINE
  5
4D5
330
1F
100
AcDbEntity
  8
0
  6
SLD-SOLID
 62
     7
100
AcDbLine
 10
15.6066145335
 20
4.0679231625
 30
0.0
 11
15.4926141971
 21
4.0679231625
 31
0.0
  0
LINE
  5
4D6
330
1F
100
AcDbEntity
  8
0
  6
SLD-SOLID
 62
     7
100
AcDbLine
 10
2.9216144583
 20
4.0679231625
 30
0.0
 11
2.8076141219
 21
4.0679231625
 31
0.0
  0
LINE
  5
4D7
330
1F
100
AcDbEntity
  8
0
  6
SLD-SOLID
 62
     7
100
AcDbLine
 10
9.1726143285
 20
4.0679231625
 30
0.0
 11
9.058614329
 21
4.0679231625
 31
0.0
  0
LINE
  5
4D8
330
1F
100
AcDbEntity
  8
0
  6
SLD-SOLID
 62
     7
100
AcDbLine
 10
9.3556143264
 20
4.0679231625
 30
0.0
 11
9.2416143269
 21
4.0679231625
 31
0.0
  0
INSERT
  5
503
330
1F
100
AcDbEntity
  8
FORMAT
100
AcDbBlockReference
  2
SW_NOTE_0
 10
9.0331890598
 20
2.4790600016
 30
0.0
  0
ENDSEC
  0
SECTION
  2
OBJECTS
  0
DICTIONARY
  5
C
330
0
100
AcDbDictionary
  3
ACAD_GROUP
350
D
  3
ACAD_LAYOUT
350
1A
  3
ACAD_MATERIAL
350
3B
  3
ACAD_MLEADERSTYLE
350
526
  3
ACAD_MLINESTYLE
350
17
  3
ACAD_PLOTSETTINGS
350
19
  3
ACAD_SCALELIST
350
4DD
  3
ACAD_VISUALSTYLE
350
2A
  3
ACDBHEADERROUNDTRIPXREC
350
504
  3
ACDBVARIABLEDICTIONARY
350
524
  0
DICTIONARY
  5
D
102
{ACAD_REACTORS
330
C
102
}
330
C
100
AcDbDictionary
  0
DICTIONARY
  5
1A
102
{ACAD_REACTORS
330
C
102
}
330
C
100
AcDbDictionary
  0
DICTIONARY
  5
3B
102
{ACAD_REACTORS
330
C
102
}
330
C
100
AcDbDictionary
  3
BYBLOCK
350
3D
  3
BYLAYER
350
3C
  3
GLOBAL
350
3E
  0
DICTIONARY
  5
526
102
{ACAD_REACTORS
330
C
102
}
330
C
100
AcDbDictionary
  0
DICTIONARY
  5
17
102
{ACAD_REACTORS
330
C
102
}
330
C
100
AcDbDictionary
  3
STANDARD
350
18
  0
DICTIONARY
  5
19
102
{ACAD_REACTORS
330
C
102
}
330
C
100
AcDbDictionary
  0
DICTIONARY
  5
4DD
102
{ACAD_REACTORS
330
C
102
}
330
C
100
AcDbDictionary
  3
A0
350
4DE
  3
A1
350
4DF
  3
A2
350
4E0
  3
A3
350
4E1
  3
A4
350
4E2
  3
A5
350
4E3
  3
A6
350
4E4
  3
A7
350
4E5
  3
A8
350
4E6
  3
A9
350
4E7
  3
B0
350
4E8
  3
B1
350
4E9
  3
B2
350
4EA
  3
B3
350
4EB
  3
B4
350
4EC
  3
B5
350
4ED
  3
B6
350
4EE
  3
B7
350
4EF
  3
B8
350
4F0
  3
B9
350
4F1
  3
C0
350
4F2
  3
C1
350
4F3
  3
C2
350
4F4
  3
C3
350
4F5
  3
C4
350
4F6
  3
C5
350
4F7
  3
C6
350
4F8
  3
C7
350
4F9
  3
C8
350
4FA
  3
C9
350
4FB
  3
D0
350
4FC
  3
D1
350
4FD
  3
D2
350
4FE
  0
DICTIONARY
  5
2A
102
{ACAD_REACTORS
330
C
102
}
330
C
100
AcDbDictionary
  3
2DWIREFRAME
350
2F
  3
3D_HIDDEN
350
31
  3
3DWIREFRAME
350
30
  3
BASIC
350
32
  3
BRIGHTEN
350
36
  3
COLORCHANGE
350
3A
  3
CONCEPTUAL
350
34
  3
DIM
350
35
  3
FACEPATTERN
350
39
  3
FLAT
350
2B
  3
FLATWITHEDGES
350
2C
  3
GOURAUD
350
2D
  3
GOURAUDWITHEDGES
350
2E
  3
LINEPATTERN
350
38
  3
REALISTIC
350
33
  3
THICKEN
350
37
  0
DICTIONARY
  5
504
102
{ACAD_REACTORS
330
C
102
}
330
C
100
AcDbDictionary
  3
CEPSNTYPE
350
50D
  3
DIMSTYLEDATA
350
523
  3
FINGERPRINTGUID
350
50E
  3
HYPERLINKBASE
350
507
  3
INSUNITS
350
50C
  3
LAYOUTDICT
350
509
  3
LWETCUNION
350
50B
  3
PLOTSETDICT
350
50A
  3
PSVPSCALE
350
510
  3
PUCSBASE
350
513
  3
PUCSORGBACK
350
519
  3
PUCSORGBOTTOM
350
515
  3
PUCSORGFRONT
350
518
  3
PUCSORGLEFT
350
516
  3
PUCSORGRIGHT
350
517
  3
PUCSORGTOP
350
514
  3
PUCSORTHOREF
350
511
  3
PUCSORTHOVIEW
350
512
  3
STYLESHEET
350
508
  3
TSTACKALIGN
350
505
  3
TSTACKSIZE
350
506
  3
UCSBASE
350
51C
  3
UCSORGBACK
350
522
  3
UCSORGBOTTOM
350
51E
  3
UCSORGFRONT
350
521
  3
UCSORGLEFT
350
51F
  3
UCSORGRIGHT
350
520
  3
UCSORGTOP
350
51D
  3
UCSORTHOREF
350
51A
  3
UCSORTHOVIEW
350
51B
  3
VERSIONGUID
350
50F
  0
DICTIONARY
  5
524
102
{ACAD_REACTORS
330
C
102
}
330
C
100
AcDbDictionary
  3
CANNOSCALE
350
527
  3
DIMASSOC
350
528
  3
HIDETEXT
350
529
  0
MATERIAL
  5
3D
102
{ACAD_REACTORS
330
3B
102
}
102
{ACAD_XDICTIONARY
360
52C
102
}
330
3B
100
AcDbMaterial
  1
ByBlock
  0
MATERIAL
  5
3C
102
{ACAD_REACTORS
330
3B
102
}
102
{ACAD_XDICTIONARY
360
52A
102
}
330
3B
100
AcDbMaterial
  1
ByLayer
  0
MATERIAL
  5
3E
102
{ACAD_REACTORS
330
3B
102
}
102
{ACAD_XDICTIONARY
360
52E
102
}
330
3B
100
AcDbMaterial
  1
Global
  0
MLINESTYLE
  5
18
102
{ACAD_REACTORS
330
17
102
}
330
17
100
AcDbMlineStyle
  2
Standard
 70
     0
  3

 62
   256
 51
90.0
 52
90.0
 71
     2
 49
0.5
 62
   256
  6
BYLAYER
 49
-0.5
 62
   256
  6
BYLAYER
  0
ACAD_PROXY_OBJECT
  5
4DE
102
{ACAD_REACTORS
330
4DD
102
}
330
4DD
100
AcDbProxyObject
 90
      499
 91
      503
 93
       41
310
903313A31580
  0
ACAD_PROXY_OBJECT
  5
4DF
102
{ACAD_REACTORS
330
4DD
102
}
330
4DD
100
AcDbProxyObject
 90
      499
 91
      503
 93
      105
310
903313A324000000000000004000
  0
ACAD_PROXY_OBJECT
  5
4E0
102
{ACAD_REACTORS
330
4DD
102
}
330
4DD
100
AcDbProxyObject
 90
      499
 91
      503
 93
      105
310
903313A344000000000000104000
  0
ACAD_PROXY_OBJECT
  5
4E1
102
{ACAD_REACTORS
330
4DD
102
}
330
4DD
100
AcDbProxyObject
 90
      499
 91
      503
 93
      105
310
903313A354000000000000144000
  0
ACAD_PROXY_OBJECT
  5
4E2
102
{ACAD_REACTORS
330
4DD
102
}
330
4DD
100
AcDbProxyObject
 90
      499
 91
      503
 93
      105
310
903313A384000000000000204000
  0
ACAD_PROXY_OBJECT
  5
4E3
102
{ACAD_REACTORS
330
4DD
102
}
330
4DD
100
AcDbProxyObject
 90
      499
 91
      503
 93
      113
310
904313A31304000000000000244000
  0
ACAD_PROXY_OBJECT
  5
4E4
102
{ACAD_REACTORS
330
4DD
102
}
330
4DD
100
AcDbProxyObject
 90
      499
 91
      503
 93
      113
310
904313A31364000000000000304000
  0
ACAD_PROXY_OBJECT
  5
4E5
102
{ACAD_REACTORS
330
4DD
102
}
330
4DD
100
AcDbProxyObject
 90
      499
 91
      503
 93
      113
310
904313A32304000000000000344000
  0
ACAD_PROXY_OBJECT
  5
4E6
102
{ACAD_REACTORS
330
4DD
102
}
330
4DD
100
AcDbProxyObject
 90
      499
 91
      503
 93
      113
310
904313A333040000000000003E4000
  0
ACAD_PROXY_OBJECT
  5
4E7
102
{ACAD_REACTORS
330
4DD
102
}
330
4DD
100
AcDbProxyObject
 90
      499
 91
      503
 93
      113
310
904313A34304000000000000444000
  0
ACAD_PROXY_OBJECT
  5
4E8
102
{ACAD_REACTORS
330
4DD
102
}
330
4DD
100
AcDbProxyObject
 90
      499
 91
      503
 93
      113
310
904313A35304000000000000494000
  0
ACAD_PROXY_OBJECT
  5
4E9
102
{ACAD_REACTORS
330
4DD
102
}
330
4DD
100
AcDbProxyObject
 90
      499
 91
      503
 93
      121
310
905313A3130304000000000000594000
  0
ACAD_PROXY_OBJECT
  5
4EA
102
{ACAD_REACTORS
330
4DD
102
}
330
4DD
100
AcDbProxyObject
 90
      499
 91
      503
 93
      105
310
903323A310000000000000010100
  0
ACAD_PROXY_OBJECT
  5
4EB
102
{ACAD_REACTORS
330
4DD
102
}
330
4DD
100
AcDbProxyObject
 90
      499
 91
      503
 93
      105
310
903343A310000000000000410100
  0
ACAD_PROXY_OBJECT
  5
4EC
102
{ACAD_REACTORS
330
4DD
102
}
330
4DD
100
AcDbProxyObject
 90
      499
 91
      503
 93
      105
310
903383A310000000000000810100
  0
ACAD_PROXY_OBJECT
  5
4ED
102
{ACAD_REACTORS
330
4DD
102
}
330
4DD
100
AcDbProxyObject
 90
      499
 91
      503
 93
      113
310
90431303A310000000000000910100
  0
ACAD_PROXY_OBJECT
  5
4EE
102
{ACAD_REACTORS
330
4DD
102
}
330
4DD
100
AcDbProxyObject
 90
      499
 91
      503
 93
      121
310
9053130303A310000000000001650100
  0
ACAD_PROXY_OBJECT
  5
4EF
102
{ACAD_REACTORS
330
4DD
102
}
330
4DD
100
AcDbProxyObject
 90
      499
 91
      503
 93
      257
310
90E312F31323822203D2031272D3022000000000000200FC000000000000284000
  0
ACAD_PROXY_OBJECT
  5
4F0
102
{ACAD_REACTORS
330
4DD
102
}
330
4DD
100
AcDbProxyObject
 90
      499
 91
      503
 93
      249
310
90D312F363422203D2031272D3022000000000000240FC000000000000284000
  0
ACAD_PROXY_OBJECT
  5
4F1
102
{ACAD_REACTORS
330
4DD
102
}
330
4DD
100
AcDbProxyObject
 90
      499
 91
      503
 93
      249
310
90D312F333222203D2031272D3022000000000000280FC000000000000284000
  0
ACAD_PROXY_OBJECT
  5
4F2
102
{ACAD_REACTORS
330
4DD
102
}
330
4DD
100
AcDbProxyObject
 90
      499
 91
      503
 93
      249
310
90D312F313622203D2031272D30220000000000002C0FC000000000000284000
  0
ACAD_PROXY_OBJECT
  5
4F3
102
{ACAD_REACTORS
330
4DD
102
}
330
4DD
100
AcDbProxyObject
 90
      499
 91
      503
 93
      249
310
90D332F333222203D2031272D30220000000000002E0FC000000000000284000
  0
ACAD_PROXY_OBJECT
  5
4F4
102
{ACAD_REACTORS
330
4DD
102
}
330
4DD
100
AcDbProxyObject
 90
      499
 91
      503
 93
      241
310
90C312F3822203D2031272D3022000000000000300FC000000000000284000
  0
ACAD_PROXY_OBJECT
  5
4F5
102
{ACAD_REACTORS
330
4DD
102
}
330
4DD
100
AcDbProxyObject
 90
      499
 91
      503
 93
      249
310
90D332F313622203D2031272D3022000000000000320FC000000000000284000
  0
ACAD_PROXY_OBJECT
  5
4F6
102
{ACAD_REACTORS
330
4DD
102
}
330
4DD
100
AcDbProxyObject
 90
      499
 91
      503
 93
      241
310
90C312F3422203D2031272D3022000000000000340FC000000000000284000
  0
ACAD_PROXY_OBJECT
  5
4F7
102
{ACAD_REACTORS
330
4DD
102
}
330
4DD
100
AcDbProxyObject
 90
      499
 91
      503
 93
      241
310
90C332F3822203D2031272D3022000000000000360FC000000000000284000
  0
ACAD_PROXY_OBJECT
  5
4F8
102
{ACAD_REACTORS
330
4DD
102
}
330
4DD
100
AcDbProxyObject
 90
      499
 91
      503
 93
      241
310
90C312F3222203D2031272D3022000000000000380FC000000000000284000
  0
ACAD_PROXY_OBJECT
  5
4F9
102
{ACAD_REACTORS
330
4DD
102
}
330
4DD
100
AcDbProxyObject
 90
      499
 91
      503
 93
      241
310
90C332F3422203D2031272D30220000000000003A0FC000000000000284000
  0
ACAD_PROXY_OBJECT
  5
4FA
102
{ACAD_REACTORS
330
4DD
102
}
330
4DD
100
AcDbProxyObject
 90
      499
 91
      503
 93
      161
310
90A3122203D2031272D30224000000000000284000
  0
ACAD_PROXY_OBJECT
  5
4FB
102
{ACAD_REACTORS
330
4DD
102
}
330
4DD
100
AcDbProxyObject
 90
      499
 91
      503
 93
      257
310
90E312D312F3222203D2031272D30220000000000003E0FC000000000000284000
  0
ACAD_PROXY_OBJECT
  5
4FC
102
{ACAD_REACTORS
330
4DD
102
}
330
4DD
100
AcDbProxyObject
 90
      499
 91
      503
 93
      225
310
90A3322203D2031272D302200000000000002100000000000000284000
  0
ACAD_PROXY_OBJECT
  5
4FD
102
{ACAD_REACTORS
330
4DD
102
}
330
4DD
100
AcDbProxyObject
 90
      499
 91
      503
 93
      225
310
90A3622203D2031272D302200000000000006100000000000000284000
  0
ACAD_PROXY_OBJECT
  5
4FE
102
{ACAD_REACTORS
330
4DD
102
}
330
4DD
100
AcDbProxyObject
 90
      499
 91
      503
 93
      249
310
90D31272D3022203D2031272D30220000000000000A100000000000000284000
  0
ACAD_PROXY_OBJECT
  5
2F
102
{ACAD_REACTORS
330
2A
102
}
330
2A
100
AcDbProxyObject
 90
      499
 91
      501
 93
      436
310
42CC9915DA5C99599C985B595049028333333333333E3BF0000000000000FB0107901411070040501600405405064090741402480A0340
1001
ACAD
1000
AcDbSavedByObjectVersion
1070
     0
  0
ACAD_PROXY_OBJECT
  5
31
102
{ACAD_REACTORS
330
2A
102
}
330
2A
100
AcDbProxyObject
 90
      499
 91
      501
 93
      500
310
424CD108121A5919195B90640502408333333333333E3BF0000000000000FB01079024090700405020000000000001110200405405064090740C02480A0340
1001
ACAD
1000
AcDbSavedByObjectVersion
1070
     0
  0
ACAD_PROXY_OBJECT
  5
30
102
{ACAD_REACTORS
330
2A
102
}
330
2A
100
AcDbProxyObject
 90
      499
 91
      501
 93
      436
310
42CCD915DA5C99599C985B595059028333333333333E3BF0000000000000FB0107901411070040501600405405064090741402480A0340
1001
ACAD
1000
AcDbSavedByObjectVersion
1070
     0
  0
ACAD_PROXY_OBJECT
  5
32
102
{ACAD_REACTORS
330
2A
102
}
330
2A
100
AcDbProxyObject
 90
      499
 91
      501
 93
      388
310
4150985CDA58D07406404333333333333E3BF0000000000000FB0107A41107004050150841D405064090741402480A0350
1001
ACAD
1000
AcDbSavedByObjectVersion
1070
     0
  0
ACAD_PROXY_OBJECT
  5
36
102
{ACAD_REACTORS
330
2A
102
}
330
2A
100
AcDbProxyObject
 90
      499
 91
      501
 93
      428
310
42109C9A59DA1D195B90C409028333333333333E3BF0000000000000FB010790141107004050150841D405064090741402480A029950
1001
ACAD
1000
AcDbSavedByObjectVersion
1070
     0
  0
ACAD_PROXY_OBJECT
  5
3A
102
{ACAD_REACTORS
330
2A
102
}
330
2A
100
AcDbProxyObject
 90
      499
 91
      501
 93
      452
310
42D0DBDB1BDC90DA185B99D95104090240C333333333333E3BF0000000000000FB0108901411070040501508421405064090741402480A0350
1001
ACAD
1000
AcDbSavedByObjectVersion
1070
     0
  0
ACAD_PROXY_OBJECT
  5
34
102
{ACAD_REACTORS
330
2A
102
}
330
2A
100
AcDbProxyObject
 90
      499
 91
      501
 93
      500
310
4290DBDB98D95C1D1D585B10940D028333333333333E3BF0000000000000FB0107902409070040501000000000000111010841D405064090740C02480A0340
1001
ACAD
1000
AcDbSavedByObjectVersion
1070
     0
  0
ACAD_PROXY_OBJECT
  5
35
102
{ACAD_REACTORS
330
2A
102
}
330
2A
100
AcDbProxyObject
 90
      499
 91
      501
 93
      412
310
40D11A5B50B409028333333333333E3BF0000000000000FB010790141107004050150841D405064090741402480A02677FFFFFD0
1001
ACAD
1000
AcDbSavedByObjectVersion
1070
     0
  0
ACAD_PROXY_OBJECT
  5
39
102
{ACAD_REACTORS
330
2A
102
}
330
2A
100
AcDbProxyObject
 90
      499
 91
      501
 93
      444
310
42D19858D95C185D1D195C9B90F409028333333333333E3BF0000000000000FB010790141107004050150841D405064090741402480A0350
1001
ACAD
1000
AcDbSavedByObjectVersion
1070
     0
  0
ACAD_PROXY_OBJECT
  5
2B
102
{ACAD_REACTORS
330
2A
102
}
330
2A
100
AcDbProxyObject
 90
      499
 91
      501
 93
      388
310
41119B185D240901404333333333333E3BF0000000000000F9010740A41107004050150841D405064090741402480A1B50
1001
ACAD
1000
AcDbSavedByObjectVersion
1070
     0
  0
ACAD_PROXY_OBJECT
  5
2C
102
{ACAD_REACTORS
330
2A
102
}
330
2A
100
AcDbProxyObject
 90
      499
 91
      501
 93
      476
310
43519B185D15DA5D1A115919D95CD0140901404333333333333E3BF0000000000000F9010740901411070040501600405405064090741402480A1B50
1001
ACAD
1000
AcDbSavedByObjectVersion
1070
     0
  0
ACAD_PROXY_OBJECT
  5
2D
102
{ACAD_REACTORS
330
2A
102
}
330
2A
100
AcDbProxyObject
 90
      499
 91
      501
 93
      412
310
41D1DBDD5C985D5910240902404333333333333E3BF0000000000000F9010740A411070040501641D405064090741402480A1B50
1001
ACAD
1000
AcDbSavedByObjectVersion
1070
     0
  0
ACAD_PROXY_OBJECT
  5
2E
102
{ACAD_REACTORS
330
2A
102
}
330
2A
100
AcDbProxyObject
 90
      499
 91
      501
 93
      500
310
4411DBDD5C985D5915DA5D1A115919D95CD0340902404333333333333E3BF0000000000000F9010740901411070040501600405405064090741402480A1B50
1001
ACAD
1000
AcDbSavedByObjectVersion
1070
     0
  0
ACAD_PROXY_OBJECT
  5
38
102
{ACAD_REACTORS
330
2A
102
}
330
2A
100
AcDbProxyObject
 90
      499
 91
      501
 93
      444
310
42D31A5B995C185D1D195C9B90E409028333333333333E3BF0000000000000FB010790141107004050750841D405064090741402483A0350
1001
ACAD
1000
AcDbSavedByObjectVersion
1070
     0
  0
ACAD_PROXY_OBJECT
  5
33
102
{ACAD_REACTORS
330
2A
102
}
330
2A
100
AcDbProxyObject
 90
      499
 91
      501
 93
      420
310
425499585B1A5CDD1A58D08409028333333333333E3BF0000000000000FB01079019070040501508421405064090741402480A1B40
1001
ACAD
1000
AcDbSavedByObjectVersion
1070
     0
  0
ACAD_PROXY_OBJECT
  5
37
102
{ACAD_REACTORS
330
2A
102
}
330
2A
100
AcDbProxyObject
 90
      499
 91
      501
 93
      412
310
41D51A1A58DAD95B90D409028333333333333E3BF0000000000000FB010790141107004050150C41D405064090741402480A0350
1001
ACAD
1000
AcDbSavedByObjectVersion
1070
     0
  0
XRECORD
  5
50D
102
{ACAD_REACTORS
330
504
102
}
330
504
100
AcDbXrecord
 90
        0
  0
XRECORD
  5
523
102
{ACAD_REACTORS
330
504
102
}
330
504
100
AcDbXrecord
1000
DSTYLE
1002
{
1070
    41
 40
0.09
1070
   271
 70
     3
1070
    44
 40
0.0625
1070
    42
 40
0.05
1070
   147
 40
0.06
1070
   272
 70
     2
1070
   340
340
11
1070
   140
 40
0.1666666667
1002
}
  0
XRECORD
  5
50E
102
{ACAD_REACTORS
330
504
102
}
330
504
100
AcDbXrecord
  1
{8DAEBFD7-C0CF-4A64-A052-B0225EC2614D}
  0
XRECORD
  5
507
102
{ACAD_REACTORS
330
504
102
}
330
504
100
AcDbXrecord
  1

  0
XRECORD
  5
50C
102
{ACAD_REACTORS
330
504
102
}
330
504
100
AcDbXrecord
 90
        1
  0
XRECORD
  5
509
102
{ACAD_REACTORS
330
504
102
}
330
504
100
AcDbXrecord
340
1A
  0
XRECORD
  5
50B
102
{ACAD_REACTORS
330
504
102
}
330
504
100
AcDbXrecord
 90
    10269
  0
XRECORD
  5
50A
102
{ACAD_REACTORS
330
504
102
}
330
504
100
AcDbXrecord
340
19
  0
XRECORD
  5
510
102
{ACAD_REACTORS
330
504
102
}
330
504
100
AcDbXrecord
 40
0.0
  0
XRECORD
  5
513
102
{ACAD_REACTORS
330
504
102
}
330
504
100
AcDbXrecord
340
0
  0
XRECORD
  5
519
102
{ACAD_REACTORS
330
504
102
}
330
504
100
AcDbXrecord
 10
0.0
 20
0.0
 30
0.0
  0
XRECORD
  5
515
102
{ACAD_REACTORS
330
504
102
}
330
504
100
AcDbXrecord
 10
0.0
 20
0.0
 30
0.0
  0
XRECORD
  5
518
102
{ACAD_REACTORS
330
504
102
}
330
504
100
AcDbXrecord
 10
0.0
 20
0.0
 30
0.0
  0
XRECORD
  5
516
102
{ACAD_REACTORS
330
504
102
}
330
504
100
AcDbXrecord
 10
0.0
 20
0.0
 30
0.0
  0
XRECORD
  5
517
102
{ACAD_REACTORS
330
504
102
}
330
504
100
AcDbXrecord
 10
0.0
 20
0.0
 30
0.0
  0
XRECORD
  5
514
102
{ACAD_REACTORS
330
504
102
}
330
504
100
AcDbXrecord
 10
0.0
 20
0.0
 30
0.0
  0
XRECORD
  5
511
102
{ACAD_REACTORS
330
504
102
}
330
504
100
AcDbXrecord
340
0
  0
XRECORD
  5
512
102
{ACAD_REACTORS
330
504
102
}
330
504
100
AcDbXrecord
 70
     0
  0
XRECORD
  5
508
102
{ACAD_REACTORS
330
504
102
}
330
504
100
AcDbXrecord
  1

  0
XRECORD
  5
505
102
{ACAD_REACTORS
330
504
102
}
330
504
100
AcDbXrecord
 90
        1
  0
XRECORD
  5
506
102
{ACAD_REACTORS
330
504
102
}
330
504
100
AcDbXrecord
 90
       70
  0
XRECORD
  5
51C
102
{ACAD_REACTORS
330
504
102
}
330
504
100
AcDbXrecord
340
0
  0
XRECORD
  5
522
102
{ACAD_REACTORS
330
504
102
}
330
504
100
AcDbXrecord
 10
0.0
 20
0.0
 30
0.0
  0
XRECORD
  5
51E
102
{ACAD_REACTORS
330
504
102
}
330
504
100
AcDbXrecord
 10
0.0
 20
0.0
 30
0.0
  0
XRECORD
  5
521
102
{ACAD_REACTORS
330
504
102
}
330
504
100
AcDbXrecord
 10
0.0
 20
0.0
 30
0.0
  0
XRECORD
  5
51F
102
{ACAD_REACTORS
330
504
102
}
330
504
100
AcDbXrecord
 10
0.0
 20
0.0
 30
0.0
  0
XRECORD
  5
520
102
{ACAD_REACTORS
330
504
102
}
330
504
100
AcDbXrecord
 10
0.0
 20
0.0
 30
0.0
  0
XRECORD
  5
51D
102
{ACAD_REACTORS
330
504
102
}
330
504
100
AcDbXrecord
 10
0.0
 20
0.0
 30
0.0
  0
XRECORD
  5
51A
102
{ACAD_REACTORS
330
504
102
}
330
504
100
AcDbXrecord
340
0
  0
XRECORD
  5
51B
102
{ACAD_REACTORS
330
504
102
}
330
504
100
AcDbXrecord
 70
     0
  0
XRECORD
  5
50F
102
{ACAD_REACTORS
330
504
102
}
330
504
100
AcDbXrecord
  1
{FAEB1C32-E019-11D5-929B-00C0DF256EC4}
  0
DICTIONARYVAR
  5
527
102
{ACAD_REACTORS
330
524
102
}
330
524
100
DictionaryVariables
280
     0
  1
1:1
  0
DICTIONARYVAR
  5
528
102
{ACAD_REACTORS
330
524
102
}
330
524
100
DictionaryVariables
280
     0
  1
2
  0
DICTIONARYVAR
  5
529
102
{ACAD_REACTORS
330
524
102
}
330
524
100
DictionaryVariables
280
     0
  1
1
  0
DICTIONARY
  5
52C
330
3D
100
AcDbDictionary
280
     1
  3
ACAD_XREC_ROUNDTRIP
360
52D
  0
DICTIONARY
  5
52A
330
3C
100
AcDbDictionary
280
     1
  3
ACAD_XREC_ROUNDTRIP
360
52B
  0
DICTIONARY
  5
52E
330
3E
100
AcDbDictionary
280
     1
  3
ACAD_XREC_ROUNDTRIP
360
52F
  0
XRECORD
  5
52D
102
{ACAD_REACTORS
330
52C
102
}
330
52C
100
AcDbXrecord
102
MATERIAL
148
0.0
149
0.0
149
0.0
 93
        0
 94
      127
282
     0
 72
     1
 77
     1
171
     1
175
     1
179
     1
273
     0
  0
XRECORD
  5
52B
102
{ACAD_REACTORS
330
52A
102
}
330
52A
100
AcDbXrecord
102
MATERIAL
148
0.0
149
0.0
149
0.0
 93
        0
 94
      127
282
     0
 72
     1
 77
     1
171
     1
175
     1
179
     1
273
     0
  0
XRECORD
  5
52F
102
{ACAD_REACTORS
330
52E
102
}
330
52E
100
AcDbXrecord
102
MATERIAL
148
0.0
149
0.0
149
0.0
 93
        0
 94
      127
282
     0
 72
     1
 77
     1
171
     1
175
     1
179
     1
273
     0
  0
ENDSEC
  0
EOF
